PrimaNota.ru - самый крупный в мире бесплатный архив песенных текстов, аккордов, табулатур и нот


Streetlight Manifesto - If And When We Rise - таба, видео

Регистрация Запомнить меня
Войти через:  Facebook Google Twitter Vk Yandex Mail.ru

Streetlight Manifesto - If And When We Rise - таба, видео

Печатать
Просмотров: 174
Лучшая metal-группа Петербурга
KEY
*- palm mute
~- play for a while
/ - slide
------------------------------------------
(normal)- play chords normal
(sKa)- strum chords in a sKa rythm

chords
                              lo
  Am  Dm  E7  G   C   F   E   E7
|-5---5---7---3---3---1---0---0--|
|-5---6---9---3---5---1---0---0--|
|-5---7---7---4---5---2---1---1--|
|-7---7---9---5---5---3---2---0--|
|-7---5---7---5---3---3---2---2--|
|-5-----------3-------1---0---0--|

--------------------------------------------

LEAD1
|---------------------------------------------------------------------|
|---------------------------------------------------------------------|
|-3-3-3-----------3-3-3-----------3-3-3-----------3-3-3---------------|
|-3-3-3--4-4-3-3--3-3-3--4-4-3-3--3-3-3--4-4-3-3--3-3-3--4-4-4-3-3-3--|
|-1-1-1--4-4-3-3--1-1-1--4-4-3-3--1-1-1--4-4-3-3--1-1-1--4-4-4-3-3-3--|
|--------2-2-1-1---------2-2-1-1---------2-2-1-1---------2-2-2-1-1-1--|
                         *   *                           * * * * * *

LEADend
|-------|
|-------|
|-3-----|
|-3-----|
|-1-----|
|-------|

RIFF1 (normal)- Am Dm E7 Am

RIFF2 (ska)- Am Dm G C E7 Am Dm E7 Am

RIFF3 (ska & normal)- Dm Am E7 Am

LEAD2
|-/17~~~--19-20--17~~~--12~~~--13~~~--15-13--12~~~--8~~~---|
|----------------------------------------------------------|
|----------------------------------------------------------|
|----------------------------------------------------------|
|----------------------------------------------------------|
|----------------------------------------------------------|

--17~~~--19-20--17~~~--12~~~--12-13-12-13-12-----------------|
---------------------------------------------12-13--10~~~----|
-------------------------------------------------------------|
-------------------------------------------------------------|
-------------------------------------------------------------|
-------------------------------------------------------------|

RIFF4 (ska)- Am Dm E7 Am

BRIDGE1 (normal)- Am G F E Dm E Am

BRIDGE2 (ska)- Am Dm G C E F E  Am Am

RIFF5 (normal)- Dm Am E7lo Am

--------------------------------------------------------------
ORDER

lead
lead1x2
leadend
riff1x2
riff2
riff3x7
riff2
riff3x5
lead2
riff1x2
riff4
bridge1
bridge2
riff5
riff3x2
Добавлено: 21.03.2012
Другие материалы по этой песне:
  • Аккорды и текст

Страница создана 21.03.2012
https://primanota.ru/streetlight-manifesto/if-and-when-we-rise-chords.htm
Привет, Гость.
Предлагаем пройти революционный курс по гитаре.
Подарок от PrimaNota.Ru, забирай!