PrimaNota.ru - самый крупный в мире бесплатный архив песенных текстов, аккордов, табулатур и нот


Steel Attack - Defender Of The Crown - текст песни, таба, видео

Регистрация Запомнить меня
Войти через:  Facebook Google Twitter Vk Yandex Mail.ru

Steel Attack - Defender Of The Crown - текст песни, таба, видео

Печатать
Просмотров: 177
Лучшая metal-группа Петербурга
Artist: Steel Attack
Title:  Defender Of The Crown
Album:  Fall Into Madness
Transcribed by Roger H. Beck (July 11, 2001)
e-mail address: roger_h_beck@hotmail.com

Standard tuning


Intro
Riff 1

e(-----------------------------------)
B(-----------------------------------)
G(---7-7-7-7-7-7-7-7-7-7-7-7-7-7-7---)
D(---7-7-7-7-7-7-7-7-7-7-7-7-7-7-7---)
A(---5-5-5-5-5-5-5-5-5-5-5-5-5-5-5---)
E(-----------------------------------)
P.M. . . . . . . . . . . . . . . .


Theme 1
Main Riff (2x)

e(---------------------------------------------------------------------------|
B(---------------------------------------------------------------------------|
G(-----------------------7-7-5-5-----------------------------7-7-5-5---------|
D(---9-9--9--9-7-7--9--9-9-9-7-7--9--9-7------9--9-7-7--9--9-9-9-7-7--9--9-7-|
A(---7-7-10-10-9-9-10-10---------10-10-9-7-7-10-10-9-9-10-10---------10-10-9-|
E(---------------------------------------8-8---------------------------------|
P.M.      .  . . .  .  . . . . .  .  . .      .  . . .  .  . . . . .  .  . .

                                                             1st     2nd
end.
e(---------------------------------------------------------(-------)---------)
B(---------------------------------------------------------(-------)---------)
G(-----------------------7-7-5-5---------------------------(-------)---------)
D(---4-4--9--9-7-7--9--9-9-9-7-7--9--9-7-5=-7--9-4=-5-7-5=-(-7-5-4-)-7-5-4---)
A(---5-5-10-10-9-9-10-10---------10-10-9-7=-9-10-5=-7-9-7=-(-9-7-5-)-9-7-5-5-)
E(---------------------------------------------------------(-------)-------7-)
P.M.      .  . . .  .  . . . . .  .  . .                     . . .   . . . .


Verse 1
Riff 2 (2x)

e(-------------------------------------------------------|
B(-------------------------------------------------------|
G(---9=-----------5=-----------7=-----------9=-----------|
D(---9=-----------5=-----------7=-----------9=-----7-5-4-|
A(---7=-----------3=-----------5=-----------7=-----9-7-5-|
E(------0-0-0-0-0----0-0-0-0-0----0-0-0-0-0----0-0-------|
P.M.    . . . . .    . . . . .    . . . . .    . . . . .

e(-------------------------------------------------------)
B(-------------------------------------------------------)
G(---9=-----------5=-----------7=-----------4=-/5=-/7=---)
D(---9=-----------5=-----------7=-----------4=-/5=-/7=---)
A(---7=-----------3=-----------5=-----------2=-/3=-/5=---)
E(------0-0-0-0-0----0-0-0-0-0----0-0-0-0-0--------------)
P.M.    . . . . .    . . . . .    . . . . .


Bridge 1
Riff 3 (2x)

e(------------------------------------------------)
B(------------------------------------------------)
G(---9=---/7=---777777-555555-4444-9=---/5=-/7=---)
D(---9=---/7=---999999-777777-5555-9=---/5=-/7=---)
A(---7=---/5=----------------------7=---/3=-/5=---)
E(------------------------------------------------)
P.M.            ...... ...... ....


Verse 2 - Riff 2 (2x)


Pre-Chorus 1
Riff 4 (2x)

e(-----------------------------------------------------------)
B(-----------------------------------------------------------)
G(------------------------------------------------4-2--------)
D(---4=-5-----------4=-5-----------4=-5-----------5-4-5-4=---)
A(---5=-7-----------5=-7-----------5=-7---------------7-5=---)
E(--------0-0-0-0-0------0-0-0-0-0------0-0-0-0-0------------)
P.M.      . . . . .      . . . . .      . . . . .


Riff 4 addition

e(-------------------------------)
B(-------------------------------)
G(---7-5-------------------------)
D(---9-7--9-7=-5-7--9-4=-5-7-5---)
A(-------10-9=-7-9-10-5=-7-9-7---)
E(-------------------------------)
P.M.           . .  .


Chorus 1
Riff 5 (2x)
                                1st ending  2nd ending
e(----------------------------(-----------)--------------------)
B(----------------------------(-----------)--------------------)
G(---9=---/7=-/5=--------7=---(-/5=-/7=---)--------------------)
D(---9=---/7=-/5=---5=---7=---(-/5=-/7=---)--------------------)
A(---7=---/5=-/3=---5=---5=---(-/3=-/5=---)-/3-3-3-3-5-5-5-5---)
E(------------------3=--------(-----------)--------------------)
P.M.                                         . . . . . . . .


Theme 2      - Main Riff (2x)
Verse 3      - Riff 2    (2x)
Pre-Chorus 2 - Riff 4    (2x)
               Riff 4 addition
Chorus 2     - Riff 5    (2x; with 1st ending 2nd time as well)


Interlude 1
Riff 6 (2x)

e(------------------------------------------------------)
B(---8=-3-3=---7-8-787===---8=-3-3=---10-12-101210===---)
G(---9=-4-4=---7-9-797===---9=-4-4=---11-12-111211===---)
D(------------------------------------------------------)
A(------------------------------------------------------)
E(------------------------------------------------------)


Intro Reprise - Riff 1


Bridge 2
Riff 7 (4x)

e(----------------------------------------------------------------------)
B(----------------------------------------------------------------------)
G(----------------------------------------------------------------------)
D(----------------------------------------------------------------------)
A(---7---9---5---7=-----------------7---9---5---7=-10-10-9-9-7-7-/5-5---)
E(-----0---0---0----0-0-0-0-0-0-0-0---0---0---0-------------------------)
P.M.   .   .   .    . . . . . . . .   .   .   .     .  . . . . .  . .

Guitar 2 (3rd and 4th time only)
e(--------------------------------------------------------------------)
B(--------------------------------------------------------------------)
G(--------------------------------------------------------------------)
D(---5---7---4---5=-----------------5---7---4---5=-9-9-7-7-5-5-/4-4---)
A(--------------------------------------------------------------------)
E(-----0---0---0----0-0-0-0-0-0-0-0---0---0---0-----------------------)
P.M.   .   .   .    . . . . . . . .   .   .   .    . . . . . .  . .


Guitar Solo
Riff 8 (2x)

e(--------------------------------------------)
B(--------------------------------------------)
G(---9=---/5=---/7=---/4=---/5=--------7===---)
D(---9=---/5=---/7=---/4=---/5=---5=---7===---)
A(---7=---/3=---/5=---/2=---/3=---5=---5===---)
E(--------------------------------3=----------)


Interlude 2
Riff 9 (2x)

e(---15-14-12----12-14-15-14-15-14-12----12-14-15-14-|
B(------------12----------------------12-------------|
G(---------------------------------------------------|
D(---------------------------------------------------|
A(---------------------------------------------------|
E(---------------------------------------------------|
P.M.  .  .  .  .  .  .  .  .  .  .  .  .  .  .  .  .

e(---17-15-14----14-15-17-15-12-10-7-----7-12-10-|
B(------------15-----------------------8---------|
G(-----------------------------------9-----------|
D(-----------------------------------------------|
A(-----------------------------------------------|
E(-----------------------------------------------|
P.M.  .  .  .  .  .  .  .  .  .  . . . . .  .  .

e(---12-10-8---8-10-12-10-19-17-15----15-17-19-15-|
B(-----------8---------------------15-------------|
G(------------------------------------------------|
D(------------------------------------------------|
A(------------------------------------------------|
E(------------------------------------------------|
P.M.  .  . . . .  .  .  .  .  .  .  .  .  .  .  .
                                                             1st   2nd
e(---17-14----------14-17-14----------14-17-14----------14-)-17=-)-----)
B(---------15----15----------15----15----------15----15----)-----)-15=-)
G(------------14----------------14----------------14-------)-----)-----)
D(---------------------------------------------------------)-----)-----)
A(---------------------------------------------------------)-----)-----)
E(---------------------------------------------------------)-----)-----)


Main Riff variation

e(---------------------------------------)
B(---------------------------------------)
G(---9=-----------5=-----------7===-/9---)
D(---9=-----------5=-----------7===-/9---)
A(---7=-----------3=-----------5===-/7---)
E(------0-0-0-0-0----0-0-0-0-0-----------)
P.M.    . . . . .    . . . . .


Chorus 3 - Riff 5 (2x; with 1st ending 2nd time as well)


Chorus 4
Riff 5 variation (2x)

e(-------------------------------------------------------------------|
B(-------------------------------------------------------------------|
G(-------------------------------------------------------------------|
D(-------------------------------------------------------------------|
A(---7-7-7-7-7-7-7-7-7-7-7-7-5-5-5-5-3-3-3-3-3-3-3-3-3-3-3-3-3-3-3-3-|
E(-------------------------------------------------------------------|
P.M. . . . . . . . . . . . . . . . . . . . . . . . . . . . . . . . .

e(---------------------------------------------------------------------)
B(---------------------------------------------------------------------)
G(---------------------------------------------------------------------)
D(---------------------------------------------------------------------)
A(-----------------------------------5-5-5-5-5-5-5-5-3-3-3-3-5-5-5-5---)
E(---3-3-3-3-3-3-3-3-3-3-3-3-3-3-3-3-----------------------------------)
P.M. . . . . . . . . . . . . . . . . . . . . . . . . . . . . . . . .

e(----------)
B(----------)
G(----------)
D(---2===---)
A(---2===---)
E(---0===---)

Symbol explanation:


P.M.  Palm Mute (notes marked with dot)
/     slide
=     sustained


Note: If you find any mistakes please send e-mail
Добавлено: 29.04.2012
Другие материалы по этой песне:
  • Аккорды и текст

Страница создана 09.04.2012
https://primanota.ru/steel-attack/defender-of-the-crown-chords.htm
Привет, Гость.
Предлагаем пройти революционный курс по гитаре.
Подарок от PrimaNota.Ru, забирай!