Войти:  Facebook Google Twitter Vk Yandex Mail.ru
PrimaNota.ru - самый крупный в мире бесплатный архив песенных текстов, аккордов, табулатур и нот


Status Quo - Pump It Up - бас-таба, видео

Печатать
Просмотров: 177
Лучшая metal-группа Петербурга

Pump It Up

  • аккорды и текст

Pump It Up
Status Quo 
Riffs 2003


G|--------------------------|
D|---1-2-1------------------|
A|--------0h1---------------|
E|-2----------2-2-0-2-0-2-0-|

G|--------------------------|
D|---1-2-1------------------|
A|--------0h1---------------|
E|-2----------2-2-0-2-0-2-0-|

G|--------------------------|
D|---1-2-1------------------|
A|--------0h1---------------|
E|-2----------2-2-0-2-0-2-0-|

G|----------------------------|
D|---1-2-1--------------------|
A|--------0h1---------0-0-1-1-|
E|-2----------2-2-4-4---------|

G|----------------------|
D|----------------------|
A|-2-2-2-1-0--2-2-2-1-0-|
E|----------------------|

G|----------------------|
D|----------------------|
A|-2-2-2-1-0--2-2-2-1-0-|
E|----------------------|

G|----------------------|
D|----------------------|
A|-2-2-2-1-0--2-2-2-1-0-|
E|----------------------|

G|----------------------|
D|----------------------|
A|-2-2-2-1-0--2-2-2-1-0-|
E|----------------------|

Добавлено: 15.03.2012
Другие материалы по этой песне:
  • Аккорды и текст

Страница создана 15.03.2012
https://primanota.ru/status-quo/pump-it-up-chords.htm

Привет, гитарист!

Тебе подарок от сайта PrimaNota.ru

Забрать подарок
ВАМ ПОДАРКИ ОТ ПРОЕКТА
"ГИТАРНАЯ РЕВОЛЮЦИЯ"