Войти:  Facebook Google Twitter Vk Yandex Mail.ru
PrimaNota.ru - самый крупный в мире бесплатный архив песенных текстов, аккордов, табулатур и нот


Status Quo - Oh Baby - текст песни, бас-таба, видео

Печатать
Просмотров: 134
Лучшая metal-группа Петербурга

Oh Baby

  • аккорды и текст

OH BABY (Bassline)

As recorded by Status Quo
(From the 1972 Album PILEDRIVER)

Words and Music by Francis Rossi & Rick Parfitt

Transcribed by Slowhand


Gtr I (E A D G) - 'Alan Lancaster - Bass'


 Intro
  Q=216
 4/4
  Gtr I      (Guitar fades in)
  W          W          W          W
|----------|----------|----------|------|
|----------|----------|----------|------|
|----------|----------|----------|------|
|----------|----------|----------|------|


  Q  Q  Q  Q    Q  Q  Q  Q    Q  Q  Q  Q    Q  Q  Q  Q
|-------------|-------------|-------------|-------------|
|-------------|-------------|-------------|-------------|
|----3--3--2--|-2-----------|-------------|-------------|
|-------------|----5--5--5--|-5--5--5--5--|-5--5--5--5--|


  Q  Q  Q  Q    Q  Q  Q  Q    Q  Q  Q  Q    Q  Q  Q  Q
|-------------|-------------|-------------|-------------|
|-------------|-------------|-------------|-------------|
|-------------|-------------|-------------|-------------|
|-5--5--5--5--|-5--5--5--5--|-5--5--5--5--|-5--5--5--5--|


  Q  Q  Q  Q    Q  Q  Q  Q    Q  Q  Q  Q    Q  Q  Q  Q
|-------------|-------------|-------------|-------------|
|-------------|-------------|-------------|-------------|
|-------3--2--|-5--5--5--5--|-5--5--5--5--|-5--5--5--5--|
|-5--5--------|-------------|-------------|-------------|


  Q  Q  Q  Q    Q  Q  Q  Q    Q  Q  Q  Q    Q  Q  Q  Q
|-------------|-------------|-------------|-------------|
|-------------|-------------|-------------|-------------|
|-5--5--3--2--|-------------|-------------|-------------|
|-------------|-5--5--5--5--|-5--5--5--5--|-5--5--5--5--|


  Q  Q  Q  Q    Q  Q  Q  Q    Q  Q  Q  Q    Q  Q  Q  Q
|-------------|-------------|-------------|-------------|
|-------------|-------------|-------------|-------------|
|----3--2--3--|-3--2--2--2--|-2--3--2--3--|-5--5--5--5--|
|-5-----------|-------------|-------------|-------------|


  Q  Q  Q  Q    Q  Q  Q  Q    Q  Q  Q  Q    Q  Q  Q  Q
|-------------|-------------|-------------|-------------|
|-------------|-------------|-------------|-------------|
|-7--7--7--7--|-------------|-------------|-7--7--7--7--|
|-------------|-5--5--5--5--|-5--5--5--5--|-------------|


                1st Verse
  Q  Q  Q  Q     q  q  q  q    q  q  q  q    q  q  q  q
|-------------||-------------|-------------|-------------|
|-------------||-------------|-------------|-------------|
|-7--7--7--7--||-------------|-------------|-------------|
|-------------||-5--5--5--5--|-5--5--5--5--|-5--5--5--5--|


  q  q  q  q    q  q  q  q    q  q  q  q    q  q  q  q
|-------------|-------------|-------------|-------------|
|-------------|-------------|-------------|-------------|
|-------------|-------------|-------------|-------------|
|-5--5--5--5--|-5--5--5--5--|-5--5--5--5--|-5--5--5--5--|


  q  q  q  q    q  q  q  q    q  q  q  q    q  q  q  q
|-------------|-------------|-------------|-------------|
|-------------|-------------|-------------|-------------|
|-------------|-5--5--5--5--|-5--5--5--5--|-5--5--5--5--|
|-5--5--5--5--|-------------|-------------|-------------|


  q  q  q  q    q  q  q  q    q  q  q  q    q  q  q  q
|-------------|-------------|-------------|-------------|
|-------------|-------------|-------------|-------------|
|-5--5--5--5--|-------------|-------------|-------------|
|-------------|-5--5--5--5--|-5--5--5--5--|-5--5--5--5--|


  q  q  q  q    q  q  q  q    q  q  q  q    q  q  q  q
|-------------|-------------|-------------|-------------|
|-------------|-------------|-------------|-------------|
|-------------|-2--2--2--2--|-2--2--2--2--|-3--3--3--3--|
|-5--5--5--5--|-------------|-------------|-------------|


  q  q  q  q    q  q  q  q    q  q  q  q    q  q  q  q
|-------------|-------------|-------------|-------------|
|-------------|-------------|-------------|-------------|
|-5--5--5--5--|-------------|-------------|-------------|
|-------------|-5--5--5--5--|-5--5--5--5--|-0--0--0--0--|


                2nd Verse
  q  q  q  q     q  q  q  q    q  q  q  q    q  q  q  q
|-------------||-------------|-------------|-------------|
|-------------||-------------|-------------|-------------|
|-------------||-------------|-------------|-------------|
|-0--0--0--0--||-5--5--5--5--|-5--5--5--5--|-5--5--5--5--|


  q  q  q  q    q  q  q  q    q  q  q  q    q  q  q  q
|-------------|-------------|-------------|-------------|
|-------------|-------------|-------------|-------------|
|-------------|-------------|-------------|-------------|
|-5--5--5--5--|-5--5--5--5--|-5--5--5--5--|-5--5--5--5--|


  q  q  E E q    q  q  q  q    q  q  q  q    q  q  q  q
|--------------|-------------|-------------|-------------|
|--------------|-------------|-------------|-------------|
|---------2-3--|-5--5--5--5--|-5--5--5--5--|-5--5--5--5--|
|-5--5--5------|-------------|-------------|-------------|


  q  q  q  q    q  q  q  q    q  q  q  q    q  q  q  q
|-------------|-------------|-------------|-------------|
|-------------|-------------|-------------|-------------|
|-5--5--5--5--|-------------|-------------|-------------|
|-------------|-5--5--5--5--|-5--5--5--5--|-5--5--5--5--|


  q  q  Q  Q    Q  Q  Q  Q    Q  Q  Q  Q    Q  Q  Q  Q
|-------------|-------------|-------------|-------------|
|-------------|-------------|-------------|-------------|
|-------------|-2--2--2--2--|-2--2--2--2--|-3--3--3--3--|
|-5--5--5--5--|-------------|-------------|-------------|


  Q  Q  Q  Q    Q  Q  Q  Q    Q  Q  Q  Q    Q  Q  Q  Q
|-------------|-------------|-------------|-------------|
|-------------|-------------|-------------|-------------|
|-5--5--5--5--|-------------|-------------|-------------|
|-------------|-5--5--5--5--|-5--5--5--5--|-0--0--0--0--|


                Guitar Solo
  Q  Q  Q  Q     Q  Q  Q  Q    Q  Q  Q  Q    Q  Q  Q  Q
|-------------||-------------|-------------|-------------|
|-------------||-------------|-------------|-------------|
|-------------||-------------|-------------|-------------|
|-0--0--0--0--||-5--5--5--5--|-5--5--5--5--|-5--5--5--5--|


  Q  Q  Q  Q    Q  Q  Q  Q    Q  Q  Q  Q    Q  Q  Q  Q
|-------------|-------------|-------------|-------------|
|-------------|-------------|-------------|-------------|
|-------------|-------------|-------------|-------------|
|-5--5--5--5--|-5--5--5--5--|-5--5--5--5--|-5--5--5--5--|


  Q  Q  Q  Q    Q  Q  Q  Q    Q  Q  Q  Q    Q  Q  Q  Q
|-------------|-------------|-------------|-------------|
|-------------|-------------|-------------|-------------|
|-------------|-5--5--5--5--|-5--5--5--5--|-5--5--5--5--|
|-5--5--5--5--|-------------|-------------|-------------|


  Q  Q  Q  Q    Q  Q  Q  Q    Q  Q  Q  Q    Q  Q  Q  Q
|-------------|-------------|-------------|-------------|
|-------------|-------------|-------------|-------------|
|-5--5--5--5--|-------------|-------------|-------------|
|-------------|-5--5--5--5--|-5--5--5--5--|-5--5--5--5--|


  Q  Q  Q  Q    Q  Q  Q  Q    Q  Q  Q  Q    Q  Q  Q  Q
|-------------|-------------|-------------|-------------|
|-------------|-------------|-------------|-------------|
|-------------|-2--2--2--2--|-2--2--2--2--|-3--3--3--3--|
|-5--5--5--5--|-------------|-------------|-------------|


  Q  Q  Q  Q    Q  Q  Q  Q    Q  Q  Q  Q    Q  Q  Q  Q
|-------------|-------------|-------------|-------------|
|-------------|-------------|-------------|-------------|
|-5--5--5--5--|-------------|-------------|-7--7--7--7--|
|-------------|-5--5--5--5--|-5--5--5--5--|-------------|


                 Bridge
  Q  Q  Q  Q      Q  Q  Q  Q    Q  Q  Q  Q    Q  Q  Q  Q
|-------------||--------------|-------------|-------------|
|-------------||o-------------|-------------|-------------|
|-7--7--7--7--||o-5--5--5--5--|-5--5--5--5--|-5--5--5--5--|
|-------------||--------------|-------------|-------------|


  1.,2.,3.             4.
  |-3-|    |-3-|
  E E E Q  E E E Q   4x Q  Q  Q  Q
|--------------------||-------------||
|-0-2-0----0-2-0----o||-------------||
|-------3--------3--o||-5--3--3--2--||
|--------------------||-------------||


 Interlude
  Q  Q  Q  Q    Q  Q  Q  Q    Q  Q  Q  Q
|-------------|-------------|--------------|
|-------------|-------------|--------------|
|-2-----------|-------------|--------------|
|----5--5--5--|-5--5--5--5--|-5--5--5--5---|


  Q  Q  Q  Q    Q  Q  Q  Q    Q  Q  Q  Q    Q  Q  Q  Q
|-------------|-------------|-------------|-------------|
|-------------|-------------|-------------|-------------|
|-------------|-------------|-------------|-------------|
|-5--5--5--5--|-5--5--5--5--|-5--5--5--5--|-5--5--5--5--|


  Q  Q  Q  Q    Q  Q  Q  Q    Q  Q  Q  Q    Q  Q  Q  Q
|-------------|-------------|-------------|-------------|
|-------------|-------------|-------------|-------------|
|-------3--2--|-5--5--5--5--|-5--5--5--5--|-5--5--5--5--|
|-5--5--------|-------------|-------------|-------------|


  Q  Q  Q  Q    Q  Q  Q  Q    Q  Q  Q  Q    Q  Q  Q  Q
|-------------|-------------|-------------|-------------|
|-------------|-------------|-------------|-------------|
|-5--5--3--2--|-------------|-------------|-------------|
|-------------|-5--5--5--5--|-5--5--5--5--|-5--5--5--5--|


  Q  Q  Q  Q    Q  Q  Q  Q    Q  Q  Q  Q    Q  Q  Q  Q
|-------------|-------------|-------------|-------------|
|-------------|-------------|-------------|-------------|
|----3--2--3--|-3--2--2--2--|-2--2--2--2--|-5--5--5--5--|
|-5-----------|-------------|-------------|-------------|


  Q  Q  Q  Q    Q  Q  Q  Q    Q  Q  Q  Q    Q  Q  Q  Q
|-------------|-------------|-------------|-------------|
|-------------|-------------|-------------|-------------|
|-7--7--7--7--|-------------|-------------|-7--7--7--7--|
|-------------|-5--5--5--5--|-5--5--5--5--|-------------|


                3rd Verse
  Q  Q  Q  Q     q  q  q  q    q  q  q  q    q  q  q  q
|-------------||-------------|-------------|-------------|
|-------------||-------------|-------------|-------------|
|-7--7--7--7--||-------------|-------------|-------------|
|-------------||-5--5--5--5--|-5--5--5--5--|-5--5--5--5--|


  q  q  q  q    q  q  q  q    q  q  q  q    q  q  q  q
|-------------|-------------|-------------|-------------|
|-------------|-------------|-------------|-------------|
|-------------|-------------|-------------|-------------|
|-5--5--5--5--|-5--5--5--5--|-5--5--5--5--|-5--5--5--5--|


  q  q  q  q    q  q  q  q    q  q  q  q    q  q  q  q
|-------------|-------------|-------------|-------------|
|-------------|-------------|-------------|-------------|
|----------2--|-5--5--5--5--|-5--5--5--5--|-5--5--5--5--|
|-5--5--5-----|-------------|-------------|-------------|


  q  q  q  q    q  q  q  q    q  q  q  q    q  q  q  q
|-------------|-------------|-------------|-------------|
|-------------|-------------|-------------|-------------|
|-5--5--5--5--|-------------|-------------|-------------|
|-------------|-5--5--5--5--|-5--5--5--5--|-5--5--5--5--|


  q  q  q  q    q  q  q  q    Q  Q  Q  Q    Q  Q  Q  Q
|-------------|-------------|-------------|-------------|
|-------------|-------------|-------------|-------------|
|-------------|-2--2--2--2--|-2--2--2--2--|-3--3--3--3--|
|-5--5--5--5--|-------------|-------------|-------------|


  Q  Q  Q  Q    Q  Q  Q  Q    Q  Q  Q  Q    q  q  q  q
|-------------|-------------|-------------|-------------|
|-------------|-------------|-------------|-------------|
|-5--5--5--5--|-------------|-------------|-7--7--7--7--|
|-------------|-5--5--5--5--|-5--5--5--5--|-------------|


                4th Verse
  q  q  Q  Q     q  q  q  q    q  q  q  q    q  q  q  q
|-------------||-------------|-------------|-------------|
|-------------||-------------|-------------|-------------|
|-7--7--7--7--||-------------|-------------|-------------|
|-------------||-5--5--5--5--|-5--5--5--5--|-5--5--5--5--|


  q  q  q  q    q  q  q  q    q  q  q  q    q  q  q  q
|-------------|-------------|-------------|-------------|
|-------------|-------------|-------------|-------------|
|-------------|-------------|-------------|-------------|
|-5--5--5--5--|-5--5--5--5--|-5--5--5--5--|-5--5--5--5--|


  q  q  E E q    q  q  q  q    q  q  q  q    q  q  q  q
|--------------|-------------|-------------|-------------|
|--------------|-------------|-------------|-------------|
|---------2-3--|-5--5--5--5--|-5--5--5--5--|-5--5--5--5--|
|-5--5--5------|-------------|-------------|-------------|


  q  q  q  q    q  q  q  q    q  q  q  q    q  q  q  q
|-------------|-------------|-------------|-------------|
|-------------|-------------|-------------|-------------|
|-5--5--5--5--|-------------|-------------|-------------|
|-------------|-5--5--5--5--|-5--5--5--5--|-5--5--5--5--|


  q  q  q  q    q  q  Q  Q    Q  Q  Q  Q    Q  Q  Q  Q
|-------------|-------------|-------------|-------------|
|-------------|-------------|-------------|-------------|
|-------------|-2--2--2--2--|-2--2--2--2--|-3--3--3--3--|
|-5--5--5--5--|-------------|-------------|-------------|


  Q  Q  Q  Q    q  q  q  q    q  q  q  q
|-------------|-------------|-------------|
|-------------|-------------|-------------|
|-5--5--5--5--|-------------|-------------|
|-------------|-5--5--5--5--|-5--5--5--5--|


                               Outro
  Q  Q  Q  Q    Q  Q  Q  Q      Q  Q  Q  Q
|-------------|-------------||--------------|
|-------------|----------7--||o-------------|
|-7--7--7--7--|-7--7--7-----||o-5--5--5--5--|
|-------------|-------------||--------------|


                              |-3-|    |-3-|
  Q  Q  Q  Q    Q  Q  Q  Q    E E E Q  E E E Q   5x
|-------------|-------------|--------------------||
|-------------|-------------|-0-2-0----0-2-0----o||
|-5--5--5--5--|-5--5--5--5--|-------3--------3--o||
|-------------|-------------|--------------------||


                                              |-3-|    |-3-|
    Q  Q  Q  Q    Q  Q  Q  Q    Q  Q  Q  Q    E E E Q  E E E Q
||--------------|-------------|-------------|---------------------||
||o-------------|-------------|-------------|-0-2-0----0-2-0-2---o||
||o-5--5--5--5--|-5--5--5--5--|-5--5--5--5--|-------3------------o||
||--------------|-------------|-------------|---------------------||


Duration Legend
---------------
W - whole; H - half; Q - quarter; E - 8th; S - 16th; T - 32nd; X - 64th; a - acciaccatura
+ - note tied to previous; . - note dotted; .. - note double dotted
Uncapitalized letters represent notes that are staccato (1/2 duration)
Irregular groupings are notated above the duration line
Duration letters will always appear directly above the note/fret number it represents the
duration for.  Duration letters with no fret number below them represent rests.  Multi-
bar rests are notated in the form Wxn, where n is the number of bars to rest for.  Low
melody durations appear below the staff

Tablature Legend
----------------
 h   - hammer-on
 p   - pull-off
 b   - bend
 pb  - pre-bend
 r   - bend release (if no number after the r, then release immediately)
 /\  - slide into or out of (from/to "nowhere")
 s   - legato slide
 S   - shift slide
  - natural harmonic
[n]  - artificial harmonic
n(n) - tapped harmonic
 ~   - vibrato
 tr  - trill
 T   - tap
 TP  - trem. picking
 PM  - palm muting
\n/  - tremolo bar dip; n = amount to dip
 \n  - tremolo bar down
 n/  - tremolo bar up
/n\  - tremolo bar inverted dip
 =   - hold bend; also acts as connecting device for hammers/pulls
 <>  - volume swell (louder/softer)
 x   - on rhythm slash represents muted slash
 o   - on rhythm slash represents single note slash

Misc Legend
-----------
 |  - bar
||  - double bar
||o - repeat start
o|| - repeat end
*|  - double bar (ending)
 :  - bar (freetime)
 $  - Segno
 &  - Coda
Tempo markers -  = BPM(8/16=s8/s16), where s8 = swing 8ths, s16 = swing 16ths


Oh baby, why don't you come home?
Oh baby, don't you leave me alone
Oh baby, been away for far too long

When you get home, gonna sing you this song
They're gonna know 'cos you've treating me wrong
Oh baby, been away for far too long

Oh baby, why don't you come home?
Oh baby, don't you leave me alone
Oh baby, been away for far too long

When you get home, gonna sing you this song
They're gonna know 'cos you've treating me wrong
Oh baby, been away for far too long 
Добавлено: 08.10.2018
Другие материалы по этой песне:
  • Аккорды и текст

Страница создана 25.04.2012
https://primanota.ru/status-quo/oh-baby-chords.htm

Привет, гитарист!

Тебе подарок от сайта PrimaNota.ru

Забрать подарок
ВАМ ПОДАРКИ ОТ ПРОЕКТА
"ГИТАРНАЯ РЕВОЛЮЦИЯ"