Войти:  Facebook Google Twitter Vk Yandex Mail.ru
PrimaNota.ru - самый крупный в мире бесплатный архив песенных текстов, аккордов, табулатур и нот


Starfucker - Rawnald Gregory Erickson The Scond - таба, видео

Печатать
Просмотров: 209
Лучшая metal-группа Петербурга

Rawnald Gregory Erickson The Scond

  • аккорды и текст

rawnald gregory erickson the second

lyrics

all my life
there you go
oh please stay
just this once
anyway

all my life
there they go
oh please stay
for the night
anyway

all my life
there you go
oh please stay
just this once
anyway

all my life
there they go
oh please stay
for the night
anyway


tab


for lead guitar/rythym

e----------------------------------------------------|
B----------------------------------------------------|
G----------------------------------------------------|
D------------------------12-----------------------12-|
A-14-12-14-12-14-12-13-14--14-12-14-12-14-12-13-14---|
E----------------------------------------------------|

e---------------------------------------------------|
B---------------------------------------------------|
G---------------------------------------------------|
D------------------------12--------------------12---|
A-14-12-14-12-14-12-13-14--14-12-14-12-14-15-14--14-|
E---------------------------------------------------|

e--------------------------------------------------|
B--------------------------------------------------|
G--------------------------------------------------|
D------------------12------------------------------|
A-12-14-12-14-15-14--------------------------------|
E--------------------------------------------------|


it's missing the bass and backround strumming, but it's right i think.


repeat over and over
enjoy!
    -s.wong
Добавлено: 28.06.2012
Другие материалы по этой песне:
  • Аккорды и текст

Страница создана 28.06.2012
https://primanota.ru/starfucker/rawnald-gregory-erickson-the-scond-chords.htm

Привет, гитарист!

Тебе подарок от сайта PrimaNota.ru

Забрать подарок
ВАМ ПОДАРКИ ОТ ПРОЕКТА
"ГИТАРНАЯ РЕВОЛЮЦИЯ"