Войти:  Facebook Google Twitter Vk Yandex Mail.ru
PrimaNota.ru - самый крупный в мире бесплатный архив песенных текстов, аккордов, табулатур и нот


Slowdive - Melon Yellow - текст песни, табы

Печатать
Лучшая metal-группа Петербурга

Melon Yellow

  • аккорды, текст

Авторы музыки: Neil Halstead
Авторы текста: Neil Halstead
0:28

e|-------------------------------------------------------------------|
B|------------------------10-----------------------------------------|
G|------------------------11-----------------------------------------|
D|-7----------------------7-----------------7------------------------|
A|-------------------------------------------------------------------|
E|-------------------------------------------------------------------|

0:50

e|---------------------------------------------------|
B|---------------------------------------------------|
G|---------------------------------------------------|
D|----7-----------6-7-6---------7-----------6-7-6----|
A|-5----9---5--7----------7--5-----9---5--7----------|
E|---------------------------------------------------|

e|----------------------------------------------------------------------------------|
B|----------------------------------------------------------------------------------|
G|-4------------------4----6-------------4------------------4-----------------------|
D|------7----6------------------7-------------7----6-------------7----6-------------|
A|----------------------------------------------------------------------------7--5--|
E|----------------------------------------------------------------------------------|

e|------------------------------------------------------|------- x2 ----------------9--------|
B|------------------------------------------------------|------------------------------10-10-|
G|---------------------------------6--------------------|-------(6)--------------------------|
D|---0-7---4------6-7-9-------0-7---------6-7-6---------|---0-7------(7)------(6)-7----------|
A|-5------------7--------7--5-----------7-------7-7--5--|-5---------------(7)----------------|
E|------------------------------------------------------|------------------------------------|

Only play brackets the first time round. 

e|-------------------------------------------------------------------------------------------------|
B|-------------------------------------------------------------------------------------------------|
G|----------------------4----6----------------4------------------------4---------------------------|
D|------7----6--------------------6-----7-6--------7----7---6-----6--7------7----6-----7-----6--7--|
A|-5----------------7-5---------------------7------------------7--------------------------7--------|
E|-------------------------------------------------------------------------------------------------|

e|--------------------------------------------------------------------|
B|--------------------------------------------------------------------|
G|-------6-----------------------------6-------------6----6---6---6---|
D|---0-7-------7-6---6-7-9---7-----0-7-----7-6---6-7----7---7---7---7-|
A|-5---------------7-----------7-5-------------7----------------------|
E|--------------------------------------------------------------------|

e|-------|
B|-------|
G|-6-----|
D|----9--|
A|-------|
E|-------|

Again, it kind of gets lost in a haze of effects, but they seem to be just playing these two notes over and 
over sporadically until...

3:13

e|-------------------------------|
B|-------------------------------|
G|----------6--6---------6-------|
D|------7--------9---6-7----7----|
A|-9--9---9--------7-----------9-|
E|-------------------------------|

Then it fades out.   
https://primanota.ru/slowdive/melon-yellow-chords.htm

Привет, гитарист!

Тебе подарок от сайта PrimaNota.ru

Забрать подарок
ВАМ ПОДАРКИ ОТ ПРОЕКТА
"ГИТАРНАЯ РЕВОЛЮЦИЯ"