Войти:  Facebook Google Twitter Vk Yandex Mail.ru
PrimaNota.ru - самый крупный в мире бесплатный архив песенных текстов, аккордов, табулатур и нот


Slipknot - The Negative One Bass - аккорды, текст

Печатать
Лучшая metal-группа Петербурга

The Negative One Bass

  • аккорды, текст
Тональность: 
0
Проще! Аппликатуры

The Negative One Bass
Slipknot
Intro:

E |-------------------------------------------------------------------|
B |-------------------------------------------------------------------|
F#|-------------------------------------------------------------------|
B |-0h1~-0h1~-0h1~-0h10-----------------------------------------------|(x8)

Verse:

E |-------------------------------------------------------------------|
B |-------------------------------------------------------------------|
F#|-------------------------------------------------------------------|
B |-01010-0101010-013/43131-0101010----------------------------------|(x8)

Chorus:

E |-------------------------------------------------------------------|
B |-------------------------------------------------------------------|
F#|----------------------------------666655551111---------------------|
B |-6~05~555--6~08~555--6~05~555--0~----------------------------------|(x2)

Verse 2 is the same as the first one!
Chorus 2 is the same as the first one!

Post chorus:

E |-------------------------------------------------------------------|
B |-------------------------------------------------------------------|
F#|------5/6---66665555-------5/6---88885555--------------------------|
B |-6506-----0-----------6506-----0-----------------------------------|

E |-------------------------------------------------------------------|
B |-------------------------------------------------------------------|
F#|------5/6---66665555-----------------------------------------------|
B |-6506-----0-----------888888-777777-(10)(10)(10)(10)---------------|

E |-------------------------------------------------------------------|
B |-------------------------------------------------------------------|
F#|------5/6---66665555-------5/6---88885555--------------------------|
B |-6506-----0-----------6506-----0-----------------------------------|

E |-------------------------------------------------------------------|
B |-------------------------------------------------------------------|
F#|------5/6---66665555-----------------------------------------------|
B |-6506-----0-----------888888-777777-1111---------------------------|

Intro again!

Bridge(not sure about this part):

E |-------------------------------------------------------------------|
B |-------------------------------------------------------------------|
F#|-------------------------------------------------------------------|
B |-0031p0(x3)-00103/4------------------------------------------------|(x8)

E |-------------------------------------------------------------------|
B |----------77778888-------------------------------------------------|
F#|-66665555----------66665555----------------------------------------|
B |----------------------------0000111133335555666655553333-----------|

E |-------------------------------------------------------------------|
B |-------------------------------------------------------------------|
F#|----------8888--------------8888-----------------------------------|
B |-88887777------888877778888------8888--1-0-1-0-1-0-1-0-------------|

Bridge 2:

E |-------------------------------------------------------------------|
B |-------------------------------------------------------------------|
F#|-------------------------------------------------------------------|
B |-1001410101010--010101410101010------------------------------------|(x4)

E |-------------------------------------------------------------------|
B |-------------------------------------------------------------------|
F#|-------------------------------------------------------------------|
B |-035656865656565--035656865656565----------------------------------|(x2)

Chorus 3 is the same as the others!
Post chorus 2 is the same as the first one!
The outro is the intro!   
https://primanota.ru/slipknot/negative-one-bass-chords.htm

Привет, гитарист!

Тебе подарок от сайта PrimaNota.ru

Забрать подарок
ВАМ ПОДАРКИ ОТ ПРОЕКТА
"ГИТАРНАЯ РЕВОЛЮЦИЯ"