Войти:  Facebook Google Twitter Vk Yandex Mail.ru
PrimaNota.ru - самый крупный в мире бесплатный архив песенных текстов, аккордов, табулатур и нот


Skids - Working For The Yankee Dollar - таба, бас-таба, видео

Печатать
Просмотров: 137
Лучшая metal-группа Петербурга

Working For The Yankee Dollar

  • аккорды и текст

Авторы музыки: Stuart Adamson
Авторы текста: Richard Jobson
[Intro]
   
   D  A  E  G6
e|-2--0--0--0-|
B|-3--2--0--0-|
G|-2--2--1--0-|   
D|-0--2--2--0-|
A|-0--0--2--2-|
E|-0--0--0--3-|(x4)


[Verse]

e|--------------------|
B|--------3-2-2-2-2-0-|
G|-2-2-2-2------------|   
D|--------------------|
A|--------------------|
E|--------------------|(x4)


[Chorus]

   E B D A
e|-9-7-7-5-|
B|-9-7-7-5-|
G|-9-8-7-6-|  
D|-9-9-7-7-|
A|-7-9-5-7-|
E|-7-7-5-5-|(x8)

Part between verses same as verse

[Break]
("Working for the yankee dollar")

e|-----------------|
B|---------3-2-0---|
G|-2-2-2-2-------0-|     
D|-----------------|
A|-----------------|
E|-----------------|(x4)

e|--------------------------------------|
B|--------------------------------------|
G|-9--9-9h11-11-11h12--14-12-11-12-11-9-|
D|--------------------------------------|
A|--------------------------------------|
E|--------------------------------------|



************************************

| h  Hammer-on

************************************
Добавлено: 25.11.2017
Другие материалы по этой песне:
  • Аккорды и текст

Страница создана 18.04.2016
https://primanota.ru/skids/working-for-yankee-dollar-chords.htm

Привет, гитарист!

Тебе подарок от сайта PrimaNota.ru

Забрать подарок
ВАМ ПОДАРКИ ОТ ПРОЕКТА
"ГИТАРНАЯ РЕВОЛЮЦИЯ"