Войти:  Facebook Google Twitter Vk Yandex Mail.ru
PrimaNota.ru - самый крупный в мире бесплатный архив песенных текстов, аккордов, табулатур и нот


The Sketches - Mein Sufi Hoon - табы, видео

Печатать
Лучшая metal-группа Петербурга

Mein Sufi Hoon

  • аккорды и текст

Now this is the intro for a beautiful song, sung by Saif Samejo, guitars by Faraz Anwar!

Play this first of all
e----10----10---10---10----------------
B--------------------------------------
G--------------------------------------
D--12---12----12---12------------------
A--------------------------------------
E--------------------------------------

Guitar 2 should keep playing this:
e--------------------------------------
B----33--------------------------------
G--------------------------------------
D--5-----------------------------------
A--------------------------------------
E--------------------------------------

Guitar 1, play this:
e--9-10---55---------------------------
B--------------------------------------
G--------------------------------------
D--------------------------------------
A--------------------------------------
E--------------------------------------

e-7s5s3-5-5s7-7-5s7-7-7-8-10-7--5------
B--------------------------------------
G--------------------------------------
D--------------------------------------
A--------------------------------------
E--------------------------------------

e-3s5-3s2-3-55-0-22-0-2----------------
B--------------------------------------
G--------------------------------------
D--------------------------------------
A--------------------------------------
E--------------------------------------

e-3s2-0-2-3-5-77-5-7-5-7-8-7-5-7-5-78-7-5-7-5-78-7-5-7-5-78--------------
B------------------------------------------------------------------------
G------------------------------------------------------------------------
D------------------------------------------------------------------------
A------------------------------------------------------------------------
E------------------------------------------------------------------------

my website: www.superinsha.webs.com
Please rate!   
Добавлено: 15.11.2017
Другие композиции этого автора:
Другие материалы по этой песне:
  • Аккорды и текст

Страница создана 15.11.2017
https://primanota.ru/sketches/mein-sufi-hoon-chords.htm

Привет, гитарист!

Тебе подарок от сайта PrimaNota.ru

Забрать подарок
ВАМ ПОДАРКИ ОТ ПРОЕКТА
"ГИТАРНАЯ РЕВОЛЮЦИЯ"