PrimaNota.ru - самый крупный в мире бесплатный архив песенных текстов, аккордов, табулатур и нот


Skegss - Slayer - таба, видео

Регистрация Запомнить меня
Войти через:  Facebook Google Twitter Vk Yandex Mail.ru

Skegss - Slayer - таба, видео

Печатать
Просмотров: 40
Лучшая metal-группа Петербурга
[Intro] 
e|---------------------------------------------------------------------------|
B|---------------------------------------------------------------------------|
G|---------------------------------------------------------------------------|
D|---------------------------------------------------------------------------|
A|----3--3--3-----------------3--3--3----------------------------------------|
E|--------------3-----5----------------3-----5-------------------------------|

e|---------------------------------------------------------------------------|
B|---------------------------------------------------------------------------|
G|---------------------------------------------------------------------------|
D|---------------------------------------------------------------------------|
A|----3--3--3-----------------3--3--3----------------------------------------|
E|--------------3-----5----------------3-----5-------------------------------|
Добавлено: 21.05.2018
Другие материалы по этой песне:
  • Аккорды и текст

Страница создана 21.05.2018
https://primanota.ru/skegss/slayer-chords.htm
Привет, Гость.
Предлагаем пройти революционный курс по гитаре.
Подарок от PrimaNota.Ru, забирай!