Войти:  Facebook Google Twitter Vk Yandex Mail.ru
PrimaNota.ru - самый крупный в мире бесплатный архив песенных текстов, аккордов, табулатур и нот


Sioux Falls - If You Let It - табы

Печатать
Лучшая metal-группа Петербурга

If You Let It

  • аккорды, текст

[Intro]

e|---------------------------------------------------------------------------|
B|---------------------------------------------------------------------------|
G|---------------------------------------------------------------------------|
D|----0-----------------0------------------0-----------------0---------------|
A|---------1-----------------1------------------1-----------------1----------|
D|-1----1------------1----1-------------3----3------------3----3-------------|

e|---------------------------------------------------------------------------|
B|---------------------------------------------------------------------------|
G|---------------------------------------------------------------------------|
D|----------3-1-0--------------------------0-----------------0---------------|
A|----5------------h1---------------------------1-----------------1----------|
D|-5----5-------------------------------3----3------------3----3-------------|

e|---------------------------------------------------------------------------|
B|---------------------------------------------------------------------------|
G|---------------------------------------------------------------------------|
D|----0----3------------0------------------0-----------------0---------------|
A|---------------------------1------------------1-----------------1----------|
D|-1----1------------1----1-------------3----3------------3----3-------------|

e|---------------------------------------------------------------------------|
B|---------------------------------------------------------------------------|
G|---------------------------------------------------------------------------|
D|----------3-1-0--------------------------0-----------------0---------------|
A|----5------------h1---------------------------1-----------------1----------|
D|-5----5-------------------------------3----3------------3----3-------------|


[Verse]

               dookie's puking            everywhere
e|---------------------------------------------------------------------------|
B|---------------------------------------------------------------------------|
G|---------------------------------------------------------------------------|
D|----0----0------------0----0-------------0----0------------0----0----------|
A|---------------------------------------------------------------------------|
D|-1----1------------1----1-------------3----3------------3----3-------------|

            will he be ok? 
e|---------------------------------------------------------------------------|
B|---------------------------------------------------------------------------|
G|---------------------------------------------------------------------------|
D|----------3-1-3--------------------------0----0------------0----0----------|
A|----5----------------------------------------------------------------------|
D|-5----5-------------------------------3----3------------3----3-------------|

               i like the way you cut your hair 
e|---------------------------------------------------------------------------|
B|---------------------------------------------------------------------------|
G|---------------------------------------------------------------------------|
D|----0----0------------0----0-------------0----0------------0----0----------|
A|---------------------------------------------------------------------------|
D|-1----1------------1----1-------------3----3------------3----3-------------|

            it looks      really great 
e|---------------------------------------------------------------------------|
B|---------------------------------------------------------------------------|
G|---------------------------------------------------------------------------|
D|----------3-1-0--------------------------0----0------------0----0----------|
A|----5-----------1----------------------------------------------------------|
D|-5----5-------------------------------3----3------------3----3-------------|

(not sure if this part is bass or not but i just play palm muted on guitar)

but maybe                                   we're animals
e|---------------------------------------------------------------------------|
B|---------------------------------------------------------------------------|
G|---------------------------------------------------------------------------|
D|---------------------------------------------------------------------------|
A|-1---1---1---1---1---1---1---1--------------3---3---3---3---3---3----3---3-|
D|-1---1---1---1---1---1---1---1--------------3---3---3---3---3---3----3---3-|

 or maybe                                   we're cannibals
e|---------------------------------------------------------------------------|
B|---------------------------------------------------------------------------|
G|---------------------------------------------------------------------------|
D|---------------------------------------------------------------------------|
A|-5---5---5---5---5---5---5---5--------------3---3---3---3---3---3----3---3-|
D|-5---5---5---5---5---5---5---5--------------3---3---3---3---3---3----3---3-|


This kind of continues going back forth for a while and the last half of the song i haven't figured out yet



************************************

| h  Hammer-on

************************************   
Другие материалы по этой песне:
  • Аккорды, текст

https://primanota.ru/sioux-falls/if-you-let-it-chords.htm

Привет, гитарист!

Тебе подарок от сайта PrimaNota.ru

Забрать подарок
ВАМ ПОДАРКИ ОТ ПРОЕКТА
"ГИТАРНАЯ РЕВОЛЮЦИЯ"