» 
 » 
Fly With Me



Shui Mu Nian Hua - Fly With Me - аккорды

Чайковский в рок-аранжировке! Очень необычно, послушай!
Тональность: 
0
Масштаб: 
100%
Прокрутка: 
0
Проще!
Аппликатуры
Нотный режим
Fly With Me
Shui Mu Nian Hua
[ Предположительная тональность: E ]

E|-------------------7-----------------------------------------7-------------------
B|----------9-----------11--9-------------------------9-----------11--9------9-----
G|-8---11-----------------------11--8--------8---11----------------------11--------
D|---------------------------------------------------------------------------------
A|---------------------------------------------------------------------------------
E|---------------------------------------------------------------------------------

E|----------------------------
B|------11---9---9---9/11-----
G|-9--------------------------
D|----------------------------
A|----------------------------
E|----------------------------

вст. C#m C#m G C#m G#m C#m

[Куплет 1, Shui Mu Nian Hua]
C#m                                                 G#m
Bu zhi ri luo yue sheng duo shao ge xia qiu
                                                     C#m
Bu zhi wo yi zhe yang ben pao le duo jiu
                                                                     G#m
Wo cong chu sheng jiu zhu ding yi sheng de xun qiu
                                                         Cm
Yuan fang na wan mei shi jie de ai he zi you

[Припев]
            C#m
Fly with me
                    C#m
In the perfect world
            G                 C#m
Go with me just like a bird
             G#m                                   C#m
Mei shen me neng zu lan zi you de tian di

[Куплет 2, Shui Mu Nian Hua]
C#m                                                G#m
Zhe yang chen mo ai ni bu zhi you duo jiu
                                                            C#m
Wo yuan fu chu wo de sheng ming he suo you
                                           G#m
Wo yao ni bu gu yi qie gen wo zou
                                                       Cm
Qu xiang na wan mei shi jie de ai he zi you


[Припев]
            C#m
Fly with me
                    C#m
In the perfect world
            G                 C#m
Go with me just like a bird
             G#m                                    C#m
Mei shen me neng zu lan wo men zai yi qi

            C#m
Fly with me
                    C#m
In the perfect world
            G                 C#m
Go with me just like a bird
             G#m                                   C#m
Mei shen me neng zu lan zi you de tian di

            C#m
Fly with me
                    C#m
In the perfect world
            G                 C#m
Go with me just like a bird
             G#m                                    C#m
Mei shen me neng zu lan wo men zai yi qi

Shui Mu Nian Hua - Fly With Me - ноты

(включить)
https://primanota.ru/shui-mu-nian-hua/fly-with-me.htm

Привет, гитарист!

Тебе подарок от сайта PrimaNota.ru

Забрать подарок
ВАМ ПОДАРКИ ОТ ПРОЕКТА
"ГИТАРНАЯ РЕВОЛЮЦИЯ"