Войти:  Facebook Google Twitter Vk Yandex Mail.ru
PrimaNota.ru - самый крупный в мире бесплатный архив песенных текстов, аккордов, табулатур и нот


Sacrifice - Re-animation - текст песни, табы, видео

Печатать
Лучшая metal-группа Петербурга

Re-animation

  • аккорды и текст
  • gtp-табы

Fig 1 x 2
|-|----------------------------------------------------------------|-|
|-|----------------------------------------------------------------|-|
|o|----------------------------------------------------------------|o|
|o|9-----------------------7---9------------------10------10-------|o|
|-|7-----------------------5---7---8---------------8-------8-------|-|
|-|--------------------------------6-------------------------------|-|

Fig 2 x 2 (other guitar plays fig 1 x 2)
|-|----------------------------------------------------------------|-|
|-|----------------------------------------------------------------|-|
|o|----------------14----13------------------------14----13--------|o|
|o|----14----15----------------14------14----15----------------1415|o|
|-|1212--1212--1212--1212--1212----1212--1212--1212--1212--1212----|-|
|-|----------------------------------------------------------------|-|
   . .   . .   . .   . .   . .     . .   . .   . .   . .   . .

Fig 1 x 2

Fig 3
|-|----------------------------------------------------------------|-|
|-|----------------------------------------------------------------|-|
|o|----------------------------------------------------------------|o|
|o|9---------------------------------------------------------------|o|
|-|7---------------------------------------------------------------|-|
|-|----------------------------------------------------------------|-|
   ^

Fig 4 x 1
|-|------|-|
|-|------|-|
|o|------|o|
|o|10107-|o|
|-|8-8-5-|-|
|-|------|-|

Fig 5 x 4
|-|-------------------------------------------------|-|
|-|-------------------------------------------------|-|
|o|-------------------------------------------------|o|
|o|9-----------------10107-9-----------------121212-|o|
|-|7-----------------8-8-5-7-----------------101010-|-|
|-|--00000-00000-0000--------00000-00000-0000-------|-|
     ..... ..... ....        ..... ..... ....

Fig 6 x 2
|-|------------------------------------------------|-|
|-|------------------------------------------------|-|
|o|------------------------------------------------|o|
|o|9-----------7-----12----------------------------|o|
|-|7-----------5-----10----------------------------|-|
|-|------------------------0-00000-00000-00000-0000|-|
                           . ..... ..... ..... ....

Fig 4 x 1
Fig 5 x 4
Fig 6 x 2
Fig 4 x 1
Fig 5 x 1

Fig 5a x 1
|-|------------------------------------------------|-|
|-|------------------------------------------------|-|
|o|------------------------------------------------|o|
|o|9-----------------10107-9-7-5-7-5-4-------------|o|
|-|7-----------------8-8-5-7-5-3-5-3-2-2-----------|-|
|-|--00000-00000-0000------------------0-----------|-|
                                       ^
Fig 7 x 4
|-|----------------------------------------------------------------|-|
|-|----------------------------------------------------------------|-|
|o|----------------------------------------------------------------|o|
|o|-----hp------hp------hp--------------hp------hp------hp-----6---|o|
|-|----343-----565-----343-----3-------343-----565-----343-----4---|-|
|-|0-0-----0-0-----0-0-----0-0-1---0-0-----0-0-----0-0-----0-0-----|-|
   . .     . .     . .     . .     . .     . .     . .     . .

Fig 6a x 2
|-|------------------------------------------------|-|
|-|------------------------------------------------|-|
|o|------------------------------------------------|o|
|o|9-----------7-----12----------------------------|o|
|-|7-----------5-----10----------------------------|-|
|-|------------------------0--0000--0000--0000--000|-|
                           .  ....  ....  ....  ...

Fig 7 x 4
Fig 6a x 2
Fig 1 x 4

Fig 8 x 
|-|--------------------------------|-|
|-|--------------------------------|-|
|o|--------------------------------|o|
|o|--------------------------------|o|
|-|2-----------8-7-3-------5---5---|-|
|-|0-----------6-5-1-------3---3---|-|

Fig 1a x 2
|-|--------------------------------------------------------|-|
|-|--------------------------------------------------------|-|
|o|--------------------------------------------------------|o|
|o|9-----------------------7---9------------------101010-7-|o|
|-|7-----------------------5---7---8---------------8-8-8-5-|-|
|-|--------------------------------6-----------------------|-|

Fig 5 x 1
Fig 5a x 1
   
Другие материалы по этой песне:

https://primanota.ru/sacrifice/re-animation-chords.htm

Привет, гитарист!

Тебе подарок от сайта PrimaNota.ru

Забрать подарок
ВАМ ПОДАРКИ ОТ ПРОЕКТА
"ГИТАРНАЯ РЕВОЛЮЦИЯ"