» 
 » 
The Lost Battalion



Sabaton - The Lost Battalion - табы

Чайковский в рок-аранжировке! Очень необычно, послушай!
  • аккорды, текст
  • gtp-табы
SOLO

e|--17b18r17b18----17~~--15p13---15p13h15~~----------------------13-------------|
B|-------------------------------------------13b15r13p11h13--16-----15--13--11--|
G|------------------------------------------------------------------------------|
D|------------------------------------------------------------------------------|
A|------------------------------------------------------------------------------|
E|------------------------------------------------------------------------------|

e|------------------------------------------------------------------------------|
B|--11h13---------------------------------------------------------11~~----------|
G|---------12b14r12--10~~------------------------------8--10--12----------------|
D|-------------------------------------------8--10--12--------------------------|
A|----------------------------10--8--10--12-------------------------------------|
E|------------------------------------------------------------------------------|
                            |     PM     PM     PM    |

e|----------------------------------------------------------13--15--17----------|
B|------11--13~~---15h16--15~~---13--15--16----13--15--16-----------------------|
G|--10--------------------------------------------------------------------------|
D|------------------------------------------------------------------------------|
A|------------------------------------------------------------------------------|
E|------------------------------------------------------------------------------|

e|-13--15--17----18~~-----17--18--20b22r20--18h20--18---------------------------|
B|------------------------------------------------------------------------------|
G|------------------------------------------------------------------------------|
D|------------------------------------------------------------------------------|
A|------------------------------------------------------------------------------|
E|------------------------------------------------------------------------------|



************************************

| x   Dead note
| g   Grace note
| (n) Ghost note
| h   Hammer-on
| p   Pull-off
| r   Release
| >   Accented note
| t   Tapping
| b   Bend
| br  Bend release
| pb  Pre-bend
| pbr Pre-bend release
| /   Slide up
| \   Slide down
| ~   Vibrato
| s   Slap
| P   Pop
| PM  Palm mute
| TR  Trill
| N   Tremolo

************************************   

Sabaton - The Lost Battalion - ноты

(включить)
Другие материалы по этой песне:

https://primanota.ru/sabaton/lost-battalion-chords.htm

Привет, гитарист!

Тебе подарок от сайта PrimaNota.ru

Забрать подарок
ВАМ ПОДАРКИ ОТ ПРОЕКТА
"ГИТАРНАЯ РЕВОЛЮЦИЯ"