PrimaNota.ru - самый крупный в мире бесплатный архив песенных текстов, аккордов, табулатур и нот


Rotting Christ - Ze Nigmar - таба, видео

Регистрация Запомнить меня
Войти через:  Facebook Google Twitter Vk Yandex Mail.ru

Rotting Christ - Ze Nigmar - таба, видео

Печатать
Просмотров: 150
Лучшая metal-группа Петербурга
Tuning: Standard (BEADGBe)

[Intro]
e|--------------------------------------------------------|
B|--------------------------------------------------------|
G|--------------------------------------------------------|
D|--------------------------------------------------------| (x7)
A|---3--------3br--------3-3-3----3br---------------------|
E|---3--------3br--------3-3-3----3br---------------------|
B|--------------------------------------------------------|

e|--------------------------------------------------------|
B|--------------------------------------------------------|
G|--------------------------------------------------------|
D|--------------------------------------------------------|
A|---3--------3br--------3-3-3----------------------------|
E|---3--------3br--------3-3-3----------------------------|
B|--------------------------------------------------------|

[Verse]
e|--------------------------------------------------------|
B|--------------------------------------------------------|
G|--------------------------------------------------------|
D|--------------------------------------------------------| (x16)
A|---3--------3br--------3-3-3----3br---------------------|
E|---3--------3br--------3-3-3----3br---------------------|
B|--------------------------------------------------------|

[Chorus]
e|--------------------------------------------------------|
B|--------------------------------------------------------|
G|--------------------------------------------------------|
D|--------------------------------------------------------| (x4)
A|---3--------3--------------3--------4-------------------|
E|---3--------3----------1-2------1-2---------------------|
B|--------------------------------------------------------|

(Chorus then splits into 2 guitar parts)
(gtr 1)
e|--------------------------------------------------------|
B|---------------------------8--------9+------------------|
G|---5--------5----------5-6------5-6---------------------|
D|--------------------------------------------------------| (x4)
A|--------------------------------------------------------|
E|--------------------------------------------------------|
B|--------------------------------------------------------|

(gtr 2)
e|--------------------------------------------------------|
B|--------------------------------------------------------|
G|--------------------------------------------------------|
D|--------------------------------------------------------| (x4)
A|---3--------3--------------3--------4-------------------|
E|---3--------3----------1-2------1-2---------------------|
B|--------------------------------------------------------|

[Bridge]
e|--------------------------------------------------------|
B|--------------------------------------------------------|
G|--------------------------------------------------------|
D|--------------------------------------------------------|
A|---3-------------------3--------------------------------|
E|---3-------------------3--------------------------------|
B|--------------------------------------------------------|

[Verse]
e|--------------------------------------------------------|
B|--------------------------------------------------------|
G|--------------------------------------------------------|
D|--------------------------------------------------------| (x8)
A|---3--------3br--------3-3-3----3br---------------------|
E|---3--------3br--------3-3-3----3br---------------------|
B|--------------------------------------------------------|

[Chorus]
e|--------------------------------------------------------|
B|--------------------------------------------------------|
G|--------------------------------------------------------|
D|--------------------------------------------------------| (x4)
A|---3--------3--------------3--------4-------------------|
E|---3--------3----------1-2------1-2---------------------|
B|--------------------------------------------------------|

(Chorus then splits into 2 guitar parts)
(gtr 1)
e|--------------------------------------------------------|
B|---------------------------8--------9+------------------|
G|---5--------5----------5-6------5-6---------------------|
D|--------------------------------------------------------| (x4)
A|--------------------------------------------------------|
E|--------------------------------------------------------|
B|--------------------------------------------------------|

(gtr 2)
e|--------------------------------------------------------|
B|--------------------------------------------------------|
G|--------------------------------------------------------|
D|--------------------------------------------------------| (x4)
A|---3--------3--------------3--------4-------------------|
E|---3--------3----------1-2------1-2---------------------|
B|--------------------------------------------------------|

[Bridge]
(gtr 1)
e|--------------------------------------------------------|
B|--------------------------------------------------------|
G|--------------------------------------------------------|
D|----------------------------6t----------3t-----8t-------| (x2)
A|---3t---------------------------------------------------|
E|--------------------------------------------------------|
B|--------------------------------------------------------|

(gtr 2)
e|--------------------------------------------------------|
B|--------------------------------------------------------|
G|--------------------------------------------------------|
D|--------------------------------------------------------| (x2)
A|--------------------------------------------------------|
E|------------------------------------------------6t------|
B|---1t---------------------------------------------------|

(gtr 1)
e|--------------------------------------------------------|
B|--------------------------------------------------------|
G|--------------------------------------------------------|
D|----------------------------6t----------3t-----8t-------| (x2)
A|---3t---------------------------------------------------|
E|--------------------------------------------------------|
B|--------------------------------------------------------|

(gtr 2)
e|--------------------------------------------------------|
B|----------------------------4t--------------------------|
G|--------------------------------------------------------|
D|--------------------------------------------------------| (x2)
A|--------------------------------------------------------|
E|----------------------------------------1t------6t------|
B|---1t---------------------------------------------------|

(gtr 1)
e|--------------------------------------------------------|
B|--------------------------------------------------------|
G|--------------------------------------------------------|
D|--------------------------------------------------------|
A|---8t---------------------------------------------------|
E|--------------------------------------------------------|
B|--------------------------------------------------------|

(gtr 2)
e|--------------------------------------------------------|
B|--------------------------------------------------------|
G|--------------------------------------------------------|
D|--------------------------------------------------------|
A|--------------------------------------------------------|
E|---6t---------------------------------------------------|
B|--------------------------------------------------------|

[Chorus]
e|--------------------------------------------------------|
B|--------------------------------------------------------|
G|--------------------------------------------------------|
D|--------------------------------------------------------| (x2)
A|---3--------3--------------3--------4-------------------|
E|---3--------3----------1-2------1-2---------------------|
B|--------------------------------------------------------|

(Chorus then splits into 2 guitar parts)
(gtr 1)
e|--------------------------------------------------------|
B|---------------------------8--------9+------------------|
G|---5--------5----------5-6------5-6---------------------|
D|--------------------------------------------------------| (x2)
A|--------------------------------------------------------|
E|--------------------------------------------------------|
B|--------------------------------------------------------|

(gtr 2)
e|--------------------------------------------------------|
B|--------------------------------------------------------|
G|--------------------------------------------------------|
D|--------------------------------------------------------| (x20
A|---3--------3--------------3--------4-------------------|
E|---3--------3----------1-2------1-2---------------------|
B|--------------------------------------------------------|

[Outro]
e|--------------------------------------------------------|
B|--------------------------------------------------------|
G|--------------------------------------------------------|
D|--------------------------------------------------------|
A|---3----------------------------------------------------|
E|---3----------------------------------------------------|
B|---1----------------------------------------------------|


************************************

| br  Bend release
| t   Tapping

************************************
Добавлено: 14.12.2017
Вам также может быть интересно:
Другие материалы по этой песне:
  • Аккорды и текст

Страница создана 14.12.2017
https://primanota.ru/rotting-christ/ze-nigmar-chords.htm
Привет, Гость.
Предлагаем пройти революционный курс по гитаре.
Подарок от PrimaNota.Ru, забирай!