Войти:  Facebook Google Twitter Vk Yandex Mail.ru
PrimaNota.ru - самый крупный в мире бесплатный архив песенных текстов, аккордов, табулатур и нот


Rotting Christ - Noctis Era - таба, видео

Печатать
Просмотров: 121
Лучшая metal-группа Петербурга

Noctis Era

  • аккорды и текст

Авторы музыки: Sakis Tolis
Авторы текста: Sakis Tolis
Tuning: B Standard (BEADF#B)

[Intro]
B |------------------------------------------------------|-----------------------------------------------|
F#|------------------------------------------------------|-----------------------------------------------|
D |------------------------------------------------------|-----------------------------------------------|
A |------------------------------------------------------|-----------------------------------------------|(x2)
E |------------------------------------------------------|-----------------------------------------------|
B |-0-0-0-0-0-0-0-0-0-0-0-0-3-3-3-3-3-3-6-6-6-6-6-6------|-0-0-0-0-0-0-0-0-0-0-0-0-3-3-3-3-3-3-6-6-6-6+--|

[Intro Pt 2]
(Gtr 1)
B |-----------------------------------------------|    |----------------------------------------------------|
F#|-----------------------------------------------|    |----------------------------------------------------|
D |-----------------------------------------------|    |----------------------------------------------------|
A |-----------------------------------------------|(x3)|----------------------------------------------------|
E |-----------------------------------------------|    |-------------------------5-5-5-5-5-5-8-8-8-8-8-8----|
B |-0-0-0-0-0-0-0-0-0-0-0-0-3-3-3-3-3-3-6-6-6-6+--|    |-0-0-0-0-0-0-0-0-0-0-0-0-3-3-3-3-3-3-6-6-6-6-6-6----|
                                                                                 * * * * * * * * * * * *
(Gtr 2)
B |-3-2-0-3-2-0-3-2-0-3-2-0-3-2-0-3-2-0-3---------|    |-3-2-0-3-2-0-3-2-0-3-2-0-3-2-0-3-2-0-3-2-0-3-2-0----|
F#|-----------------------------------------------|    |----------------------------------------------------|
D |-----------------------------------------------|    |----------------------------------------------------|
A |-----------------------------------------------|(x3)|----------------------------------------------------|
E |-----------------------------------------------|    |----------------------------------------------------| 
B |-----------------------------------------------|    |----------------------------------------------------| 
                                                                                        
[Verse]
(Gtr 1)
B |-----------------------|-----------------------|-----------------------|-----------------------|
F#|-----------------------|-----------------------|-----------------------|-----------------------|
D |-----------------------|-----------------------|-----------------------|-----------------------|
A |-----------------------|-----------------------|-----------------------|-----------------------|
E |-----------------------|-----------------------|-----------------------|-----------------------|
B |-0-0-0-0-0-0-0---0-0-0-|-0-0-0-0-0-0-0---0-0-0-|-0-0-0-0-0-0-0---0-0-0-|-0-0-0-0-0-0-0---0-0-0-|
    * * * * * * *   * * *   * * * * * * *   * * *   * * * * * * *   * * *   * * * * * * *   * * *

(Gtr 2)
B |-----------------------|-----------------------|-----------------------|-----------------------|
F#|--/12------------------|--\8-------------------|--/10------------------|--\7-------------------|
D |-----------------------|-----------------------|-----------------------|-----------------------|
A |-----------------------|-----------------------|-----------------------|-----------------------|
E |-----------------------|-----------------------|-----------------------|-----------------------|
B |-----------------------|-----------------------|-----------------------|-----------------------|

(Gtr 3)
B |-----------------------|-----------------------|-----------------------|-----------------------|
F#|-----------------------|-----------------------|-----------------------|-----------------------|
D |--/12------------------|--\9-------------------|--/11------------------|--\7-------------------|
A |-----------------------|-----------------------|-----------------------|-----------------------|
E |-----------------------|-----------------------|-----------------------|-----------------------|
B |-----------------------|-----------------------|-----------------------|-----------------------|

(Gtr 1)
B |-----------------------|-----------------------|-----------------------|-----------------------|
F#|-----------------------|-----------------------|-----------------------|-----------------------|
D |-----------------------|-----------------------|-----------------------|-----------------------|
A |-----------------------|-----------------------|-----------------------|-----------------------|
E |-----------------------|-----------------------|-----------------------|-----------------------|
B |-0-0-0-0-0-0-0---0-0-0-|-0-0-0-0-0-0-0---0-0-0-|-0-0-0-0-0-0-0---0-0-0-|-0-0-0-0-0-0-0---0-0-0-|
    * * * * * * *   * * *   * * * * * * *   * * *   * * * * * * *   * * *   * * * * * * *   * * *

(Gtr 2)
B |-----------------------|-----------------------|-----------------------|-----------------------|
F#|--/8-------------------|--\5-------------------|--/7-------------------|--\3-------------------|
D |-----------------------|-----------------------|-----------------------|-----------------------|
A |-----------------------|-----------------------|-----------------------|-----------------------|
E |-----------------------|-----------------------|-----------------------|-----------------------|
B |-----------------------|-----------------------|-----------------------|-----------------------|

(Gtr 3)
B |-----------------------|-----------------------|-----------------------|-----------------------|
F#|-----------------------|-----------------------|-----------------------|-----------------------|
D |--/9-------------------|--\5-------------------|--/7-------------------|--\2-------------------|
A |-----------------------|-----------------------|-----------------------|-----------------------|
E |-----------------------|-----------------------|-----------------------|-----------------------|
B |-----------------------|-----------------------|-----------------------|-----------------------|

(Gtr 1)
B |-------------------------|-------------------------|-------------------------|------------------------|
F#|-------------------------|-------------------------|-------------------------|------------------------|
D |-------------------------|-------------------------|-------------------------|------------------------|
A |-------------------------|-------------------------|-------------------------|------------------------|(x2)
E |-------------------------|-------------------------|-------------------------|------------------------|
B |-0-0-0-0-0-0-0-----0-0-0-|-3-3-3-3-3-3-5-----5-5-5-|-0-0-0-0-0-0-0-----0-0-0-|-3-3-3-3-3-3-5-----5-5-5|
    * * * * * * *     * * *   * * * * * * *     * * *   * * * * * * *     * * *   * * * * * * *     * * *

(Gtr 2)
B |-3-2-0-3-2-0-3-2-0-3-2-0-|-3-2-0-3-2-0-3-2-0-3-2-0-|-3-2-0-3-2-0-3-2-0-3-2-0-|-3-2-0-3-2-0-3-2-0-3-2-0|
F#|-------------------------|-------------------------|-------------------------|------------------------|
D |-------------------------|-------------------------|-------------------------|------------------------|
A |-------------------------|-------------------------|-------------------------|------------------------|(x2)
E |-------------------------|-------------------------|-------------------------|------------------------|
B |-------------------------|-------------------------|-------------------------|------------------------|

(Gtr 3)
B |-------------------------|-------------------------|-------------------------|------------------------|
F#|-/5----------------------|-/8----------10--10-10\5-|-/5----------------------|-/8----------10--10-10\5|
D |-------------------------|-------------------------|-------------------------|------------------------|
A |-------------------------|-------------------------|-------------------------|------------------------|(x2)
E |-------------------------|-------------------------|-------------------------|------------------------|
B |-------------------------|-------------------------|-------------------------|------------------------|

(Gtr 1)
B |-------------------------|
F#|-------------------------|
D |-------------------------|
A |-------------------------|
E |-------------------------|
B |-0-0-0-0-0-0-0-0-0-0-0-0-|
    * * * * * * * * * * * *  

(Gtr 2)
B |-3-2-0-3-2-0-3-2-0-3-2-0-|
F#|-------------------------|
D |-------------------------|
A |-------------------------|
E |-------------------------|
B |-------------------------|

[Verse]
(Gtr 1)
B |-----------------------|-----------------------|-----------------------|-----------------------|
F#|-----------------------|-----------------------|-----------------------|-----------------------|
D |-----------------------|-----------------------|-----------------------|-----------------------|
A |-----------------------|-----------------------|-----------------------|-----------------------|
E |-----------------------|-----------------------|-----------------------|-----------------------|
B |-0-0-0-0-0-0-0---0-0-0-|-0-0-0-0-0-0-0---0-0-0-|-0-0-0-0-0-0-0---0-0-0-|-0-0-0-0-0-0-0---0-0-0-|
    * * * * * * *   * * *   * * * * * * *   * * *   * * * * * * *   * * *   * * * * * * *   * * *

(Gtr 2)
B |-----------------------|-----------------------|-----------------------|-----------------------|
F#|--/12------------------|--\8-------------------|--/10------------------|--\7-------------------|
D |-----------------------|-----------------------|-----------------------|-----------------------|
A |-----------------------|-----------------------|-----------------------|-----------------------|
E |-----------------------|-----------------------|-----------------------|-----------------------|
B |-----------------------|-----------------------|-----------------------|-----------------------|

(Gtr 3)
B |-----------------------|-----------------------|-----------------------|-----------------------|
F#|-----------------------|-----------------------|-----------------------|-----------------------|
D |--/12------------------|--\9-------------------|--/11------------------|--\7-------------------|
A |-----------------------|-----------------------|-----------------------|-----------------------|
E |-----------------------|-----------------------|-----------------------|-----------------------|
B |-----------------------|-----------------------|-----------------------|-----------------------|

(Gtr 1)
B |-----------------------|-----------------------|-----------------------|-----------------------|
F#|-----------------------|-----------------------|-----------------------|-----------------------|
D |-----------------------|-----------------------|-----------------------|-----------------------|
A |-----------------------|-----------------------|-----------------------|-----------------------|
E |-----------------------|-----------------------|-----------------------|-----------------------|
B |-0-0-0-0-0-0-0---0-0-0-|-0-0-0-0-0-0-0---0-0-0-|-0-0-0-0-0-0-0---0-0-0-|-0-0-0-0-0-0-0---0-0-0-|
    * * * * * * *   * * *   * * * * * * *   * * *   * * * * * * *   * * *   * * * * * * *   * * *

(Gtr 2)
B |-----------------------|-----------------------|-----------------------|-----------------------|
F#|--/8-------------------|--\5-------------------|--/7-------------------|--\3-------------------|
D |-----------------------|-----------------------|-----------------------|-----------------------|
A |-----------------------|-----------------------|-----------------------|-----------------------|
E |-----------------------|-----------------------|-----------------------|-----------------------|
B |-----------------------|-----------------------|-----------------------|-----------------------|

(Gtr 3)
B |-----------------------|-----------------------|-----------------------|-----------------------|
F#|-----------------------|-----------------------|-----------------------|-----------------------|
D |--/9-------------------|--\5-------------------|--/7-------------------|--\2-------------------|
A |-----------------------|-----------------------|-----------------------|-----------------------|
E |-----------------------|-----------------------|-----------------------|-----------------------|
B |-----------------------|-----------------------|-----------------------|-----------------------|

(Gtr 1)
B |-------------------------|-------------------------|-------------------------|------------------------|
F#|-------------------------|-------------------------|-------------------------|------------------------|
D |-------------------------|-------------------------|-------------------------|------------------------|
A |-------------------------|-------------------------|-------------------------|------------------------|(x2)
E |-------------------------|-------------------------|-------------------------|------------------------|
B |-0-0-0-0-0-0-0-----0-0-0-|-3-3-3-3-3-3-5-----5-5-5-|-0-0-0-0-0-0-0-----0-0-0-|-3-3-3-3-3-3-5-----5-5-5|
    * * * * * * *     * * *   * * * * * * *     * * *   * * * * * * *     * * *   * * * * * * *     * * *

(Gtr 2)
B |-3-2-0-3-2-0-3-2-0-3-2-0-|-3-2-0-3-2-0-3-2-0-3-2-0-|-3-2-0-3-2-0-3-2-0-3-2-0-|-3-2-0-3-2-0-3-2-0-3-2-0|
F#|-------------------------|-------------------------|-------------------------|------------------------|
D |-------------------------|-------------------------|-------------------------|------------------------|
A |-------------------------|-------------------------|-------------------------|------------------------|(x2)
E |-------------------------|-------------------------|-------------------------|------------------------|
B |-------------------------|-------------------------|-------------------------|------------------------|

(Gtr 3)
B |-------------------------|-------------------------|-------------------------|------------------------|
F#|-/5----------------------|-/8----------10--10-10\5-|-/5----------------------|-/8----------10--10-10\5|
D |-------------------------|-------------------------|-------------------------|------------------------|
A |-------------------------|-------------------------|-------------------------|------------------------|(x2)
E |-------------------------|-------------------------|-------------------------|------------------------|
B |-------------------------|-------------------------|-------------------------|------------------------|


[Chorus]
(Gtr 1)
B |-------------------------|-------------------------|  |-------------------------|-------------------------|
F#|-------------------------|-------------------------|  |-------------------------|-------------------------|
D |-------------------------|-------------------------|  |-------------------------|-------------------------|
A |-------------------------|-------------7-7-7-7-7-7-|  |-7-9-9-9-9-9-9-9-9-9-9-7-|-7-9-9-9-9-9-9-9-9-9-9-9-|
E |-2-2-2-2-2-2-2-2-2-2-2-2-|-5-5-5-5-5-5-5-5-5-5-5-5-|  |-5-7-7-7-7-7-7-7-7-7-7-5-|-5-7-7-7-7-7-7-7-7-7-7-7-|
B |-0-0-0-0-0-0-0-0-0-0-0-0-|-3-3-3-3-3-3-------------|  |-------------------------|-------------------------|
                                                       (x3)
(Gtr 2)
B |-3-2-0-3-2-0-3-2-0-3-2-0-|-3-2-0-3-2-0-3-2-0-3-2-0-|  |-3-2-0-3-2-0-3-2-0-3-2-0-|-3-2-0-3-2-0-3-2-0-3-2-0-|
F#|-------------------------|-------------------------|  |-------------------------|-------------------------|
D |-------------------------|-------------------------|  |-------------------------|-------------------------|
A |-------------------------|-------------------------|  |-------------------------|-------------------------|
E |-------------------------|-------------------------|  |-------------------------|-------------------------|
B |-------------------------|-------------------------|  |-------------------------|-------------------------|
                                                       (x3)

(Gtr 1)
B |-------------------------|-------------------------|  |-------------------------|-------------------------|
F#|-------------------------|-------------------------|  |-------------------------|-------------------------|
D |-------------------------|-------------------------|  |-------------------------|-------------------------|
A |-------------------------|-------------7-7-7-7-7-7-|  |-7-9-9-9-9-9-9-9-9-9-9-7-|-7-9-9-9-9-9-9-9-9-9-9-9-|
E |-2-2-2-2-2-2-2-2-2-2-2-2-|-5-5-5-5-5-5-5-5-5-5-5-5-|  |-5-7-7-7-7-7-7-7-7-7-7-5-|-5-7-7-7-7-7-7-7-7-7-7-7-|
B |-0-0-0-0-0-0-0-0-0-0-0-0-|-3-3-3-3-3-3-------------|  |-------------------------|-------------------------|
                                                       (x3)
(Gtr 2)
B |-3-2-0-3-2-0-3-2-0-3-2-0-|-3-2-0-3-2-0-3-2-0-3-2-0-|  |-3-2-0-3-2-0-3-2-0-3-2-0-|-3-2-0-3-2-0-3-2-0-3-2-0-|
F#|-------------------------|-------------------------|  |-------------------------|-------------------------|
D |-------------------------|-------------------------|  |-------------------------|-------------------------|
A |-------------------------|-------------------------|  |-------------------------|-------------------------|
E |-------------------------|-------------------------|  |-------------------------|-------------------------|
B |-------------------------|-------------------------|  |-------------------------|-------------------------|
                                                       (x3)

[Solo]
(Gtr 1)
B |-------------------------|-------------------------|  |-------------------------|-------------------------|
F#|-------------------------|-------------------------|  |-------------------------|-------------------------|
D |-------------------------|-------------------------|  |-------------------------|-------------------------|
A |-------------------------|-------------7-7-7-7-7-7-|  |-7-9-9-9-9-9-9-9-9-9-9-7-|-7-9-9-9-9-9-9-9-9-9-9-9-|
E |-2-2-2-2-2-2-2-2-2-2-2-2-|-5-5-5-5-5-5-5-5-5-5-5-5-|  |-5-7-7-7-7-7-7-7-7-7-7-5-|-5-7-7-7-7-7-7-7-7-7-7-7-|
B |-0-0-0-0-0-0-0-0-0-0-0-0-|-3-3-3-3-3-3-------------|  |-------------------------|-------------------------|
                                                       (x3)

(Gtr 2)
B |-3-2-0-3-2-0-3-2-0-3-2-0-|-3-2-0-3-2-0-3-2-0-3-2-0-|  |-3-2-0-3-2-0-3-2-0-3-2-0-|-3-2-0-3-2-0-3-2-0-3-2-0-|
F#|-------------------------|-------------------------|  |-------------------------|-------------------------|
D |-------------------------|-------------------------|  |-------------------------|-------------------------|
A |-------------------------|-------------------------|  |-------------------------|-------------------------|
E |-------------------------|-------------------------|  |-------------------------|-------------------------|
B |-------------------------|-------------------------|  |-------------------------|-------------------------|
                                                       (x3)

(Gtr 3)
B |-------------------------|-------------------------|  |-------------------------|-------------------------|
F#|-12----12---10-10-8------|-10----10----10---8\5--5-|  |-12----12---10-10-8------|-12----12---10-10-8------|
D |--------------------9--7-|-------------------------|  |--------------------9--7-|--------------------9--7-|
A |-------------------------|-------------------------|  |-------------------------|-------------------------|
E |-------------------------|-------------------------|  |-------------------------|-------------------------|
B |-------------------------|-------------------------|  |-------------------------|-------------------------|
                                                       (x3)

(Gtr 1)
B |-------------------------|-------------------------|  |-------------------------|-------------------------|
F#|-------------------------|-------------------------|  |-------------------------|-------------------------|
D |-------------------------|-------------------------|  |-------------------------|-------------------------|
A |-------------------------|-------------7-7-7-7-7-7-|  |-7-9-9-9-9-9-9-9-9-9-9-7-|-7-9-9-9-9-9-9-9-9-9-9-9-|
E |-2-2-2-2-2-2-2-2-2-2-2-2-|-5-5-5-5-5-5-5-5-5-5-5-5-|  |-5-7-7-7-7-7-7-7-7-7-7-5-|-5-7-7-7-7-7-7-7-7-7-7-7-|
B |-0-0-0-0-0-0-0-0-0-0-0-0-|-3-3-3-3-3-3-------------|  |-------------------------|-------------------------|
                                                       (x3)

(Gtr 2)
B |-3-2-0-3-2-0-3-2-0-3-2-0-|-3-2-0-3-2-0-3-2-0-3-2-0-|  |-3-2-0-3-2-0-3-2-0-3-2-0-|-3-2-0-3-2-0-3-2-0-3-2-0-|
F#|-------------------------|-------------------------|  |-------------------------|-------------------------|
D |-------------------------|-------------------------|  |-------------------------|-------------------------|
A |-------------------------|-------------------------|  |-------------------------|-------------------------|
E |-------------------------|-------------------------|  |-------------------------|-------------------------|
B |-------------------------|-------------------------|  |-------------------------|-------------------------|
                                                       (x3)

(Gtr 3)
B |-------------------------|-------------------------|  |-------------------------|-------------------------|
F#|-12----12---10-10-8------|-10----10----10---8\5--5-|  |-12----12---10-10-8------|-12----12---10-10-8------|
D |--------------------9--7-|-------------------------|  |--------------------9--7-|--------------------9--7-|
A |-------------------------|-------------------------|  |-------------------------|-------------------------|
E |-------------------------|-------------------------|  |-------------------------|-------------------------|
B |-------------------------|-------------------------|  |-------------------------|-------------------------|
                                                       (x3)

(Gtr 1)
B |-------------------------|-------------------------|  |-------------------------|-------------------------|
F#|-12----12---10-10-8------|-10----10----10---8\5--5-|  |-12----12---10-10-8------|-12----12---10-10-8------|
D |--------------------9--7-|-------------------------|  |--------------------9--7-|--------------------9--7-|
A |-------------------------|-------------------------|  |-------------------------|-------------------------|
E |-------------------------|-------------------------|  |-------------------------|-------------------------|
B |-------------------------|-------------------------|  |-------------------------|-------------------------|
                                                       (x3)

(Gtr 1)
B |-------------------------|-------------------------|  |-------------------------|-------------------------|
F#|-12----12---10-10-8------|-10----10----10---8\5--5-|  |-12----12---10-10-8------|-12----12---10-10-8------|
D |--------------------9--7-|-------------------------|  |--------------------9--7-|--------------------9--7-|
A |-------------------------|-------------------------|  |-------------------------|-------------------------|
E |-------------------------|-------------------------|  |-------------------------|-------------------------|
B |-------------------------|-------------------------|  |-------------------------|-------------------------|
                                                       (x3)


(Gtr 1)
B |-------------------------|-------------------------|  |-------------------------|-------------------------|
F#|-------------------------|-------------------------|  |-------------------------|-------------------------|
D |-------------------------|-------------------------|  |-------------------------|-------------------------|
A |-------------------------|-------------7-7-7-7-7-7-|  |-------------------------|-------------7-7-7-7-7-7-|
E |-2-2-2-2-2-2-2-2-2-2-2-2-|-5-5-5-5-5-5-5-5-5-5-5-5-|  |-2-2-2-2-2-2-2-2-2-2-2-2-|-5-5-5-5-5-5-5-5-5-5-5-5-|
B |-0-0-0-0-0-0-0-0-0-0-0-0-|-3-3-3-3-3-3-------------|  |-0-0-0-0-0-0-0-0-0-0-0-0-|-3-3-3-3-3-3-------------|
    * * * * * * * * * * * *   * * * * * * * * * * * *      * * * * * * * * * * * *   * * * * * * * * * * * *  
                                                       (x3)
 
(Gtr 2)
B |-------------------------|-------------------------|  |-------------------------|-------------------------|
F#|-12----12---10-10-8------|-10----10----10---8\5--5-|  |-12----12---10-10-8------|-12----12---10-10-8------|
D |--------------------9--7-|-------------------------|  |--------------------9--7-|--------------------9--7-|
A |-------------------------|-------------------------|  |-------------------------|-------------------------|
E |-------------------------|-------------------------|  |-------------------------|-------------------------|
B |-------------------------|-------------------------|  |-------------------------|-------------------------|
                                                       (x3)

(Gtr 3)
B |-12----12---10-10-8------|-10----10----10---8\5--5-|  |-12----12---10-10-8------|-12----12---10-10-8------|
F#|--------------------10-8-|-------------------------|  |--------------------10-8-|--------------------10-8-|
D |-------------------------|-------------------------|  |-------------------------|-------------------------|
A |-------------------------|-------------------------|  |-------------------------|-------------------------|
E |-------------------------|-------------------------|  |-------------------------|-------------------------|
B |-------------------------|-------------------------|  |-------------------------|-------------------------|
                                                       (x3)


[Chorus]
(Gtr 1)
B |-------------------------|-------------------------|  |-------------------------|-------------------------|
F#|-------------------------|-------------------------|  |-------------------------|-------------------------|
D |-------------------------|-------------------------|  |-------------------------|-------------------------|
A |-------------------------|-------------7-7-7-7-7-7-|  |-7-9-9-9-9-9-9-9-9-9-9-7-|-7-9-9-9-9-9-9-9-9-9-9-9-|
E |-2-2-2-2-2-2-2-2-2-2-2-2-|-5-5-5-5-5-5-5-5-5-5-5-5-|  |-5-7-7-7-7-7-7-7-7-7-7-5-|-5-7-7-7-7-7-7-7-7-7-7-7-|
B |-0-0-0-0-0-0-0-0-0-0-0-0-|-3-3-3-3-3-3-------------|  |-------------------------|-------------------------|
                                                       (x3)
(Gtr 2)
B |-3-2-0-3-2-0-3-2-0-3-2-0-|-3-2-0-3-2-0-3-2-0-3-2-0-|  |-3-2-0-3-2-0-3-2-0-3-2-0-|-3-2-0-3-2-0-3-2-0-3-2-0-|
F#|-------------------------|-------------------------|  |-------------------------|-------------------------|
D |-------------------------|-------------------------|  |-------------------------|-------------------------|
A |-------------------------|-------------------------|  |-------------------------|-------------------------|
E |-------------------------|-------------------------|  |-------------------------|-------------------------|
B |-------------------------|-------------------------|  |-------------------------|-------------------------|
                                                       (x3)

(Gtr 3)
B |-------------------------|-------------------------|  |-------------------------|-------------------------|
F#|-12----12---10-10-8------|-10----10----10---8\5--5-|  |-12----12---10-10-8------|-12----12---10-10-8------|
D |--------------------9--7-|-------------------------|  |--------------------9--7-|--------------------9--7-|
A |-------------------------|-------------------------|  |-------------------------|-------------------------|
E |-------------------------|-------------------------|  |-------------------------|-------------------------|
B |-------------------------|-------------------------|  |-------------------------|-------------------------|
                                                       (x3)

(Gtr 1)
B |-------------------------|-------------------------|  |-------------------------|-------------------------|
F#|-------------------------|-------------------------|  |-------------------------|-------------------------|
D |-------------------------|-------------------------|  |-------------------------|-------------------------|
A |-------------------------|-------------7-7-7-7-7-7-|  |-7-9-9-9-9-9-9-9-9-9-9-7-|-7-9-9-9-9-9-9-9-9-9-9-9-|
E |-2-2-2-2-2-2-2-2-2-2-2-2-|-5-5-5-5-5-5-5-5-5-5-5-5-|  |-5-7-7-7-7-7-7-7-7-7-7-5-|-5-7-7-7-7-7-7-7-7-7-7-7-|
B |-0-0-0-0-0-0-0-0-0-0-0-0-|-3-3-3-3-3-3-------------|  |-------------------------|-------------------------|
                                                       (x3)
(Gtr 2)
B |-3-2-0-3-2-0-3-2-0-3-2-0-|-3-2-0-3-2-0-3-2-0-3-2-0-|  |-3-2-0-3-2-0-3-2-0-3-2-0-|-3-2-0-3-2-0-3-2-0-3-2-0-|
F#|-------------------------|-------------------------|  |-------------------------|-------------------------|
D |-------------------------|-------------------------|  |-------------------------|-------------------------|
A |-------------------------|-------------------------|  |-------------------------|-------------------------|
E |-------------------------|-------------------------|  |-------------------------|-------------------------|
B |-------------------------|-------------------------|  |-------------------------|-------------------------|
                                                       (x3)

(Gtr 3)
B |-------------------------|-------------------------|  |-------------------------|-------------------------|
F#|-12----12---10-10-8------|-10----10----10---8\5--5-|  |-12----12---10-10-8------|-12----12---10-10-8------|
D |--------------------9--7-|-------------------------|  |--------------------9--7-|--------------------9--7-|
A |-------------------------|-------------------------|  |-------------------------|-------------------------|
E |-------------------------|-------------------------|  |-------------------------|-------------------------|
B |-------------------------|-------------------------|  |-------------------------|-------------------------|
                                                       (x3)

[Outro]
B |--------------------------------------------------|--------------------------------------------------|
F#|--------------------------------------------------|--------------------------------------------------|
D |--------------------------------------------------|--------------------------------------------------|
A |--------------------------------------------------|--------------------------------------------------|(x2)
E |--------------------------------------------------|--------------------------------------------------|
B |-0-0-0-0-0-0-0-0-0-0-0-0-3-3-3-3-3-3-6-6-6-6-6-6--|-0-0-0-0-0-0-0-0-0-0-0-0-3-3-3-3-3-3-6-6-6-6+-----|

[Outro Pt 2]
(Gtr 1)
B |--------------------------------------------------|    |--------------------------------------------------|
F#|--------------------------------------------------|    |--------------------------------------------------|
D |--------------------------------------------------|    |--------------------------------------------------|
A |--------------------------------------------------|(x3)|--------------------------------------------------|
E |--------------------------------------------------|    |-------------------------5-5-5-5-5-5-8-8-8-8-8-8--|
B |-0-0-0-0-0-0-0-0-0-0-0-0-3-3-3-3-3-3-6-6-6-6+-----|    |-0-0-0-0-0-0-0-0-0-0-0-0-3-3-3-3-3-3-6-6-6-6-6-6--|
                                                                                    * * * * * * * * * * * *
(Gtr 2)
B |-3-2-0-3-2-0-3-2-0-3-2-0-3-2-0-3-2-0-3------------|    |--------------------------------------------------|
F#|--------------------------------------------------|    |--------------------------------------------------|
D |--------------------------------------------------|    |--------------------------------------------------|
A |--------------------------------------------------|(x3)|--------------------------------------------------|
E |--------------------------------------------------|    |--------------------------------------------------|
B |--------------------------------------------------|    |--------------------------------------------------|


************************************

| /  Slide up
| \  Slide down

************************************
Добавлено: 14.12.2017
Другие материалы по этой песне:
  • Аккорды и текст

Страница создана 14.12.2017
https://primanota.ru/rotting-christ/noctis-era-chords.htm

Привет, гитарист!

Тебе подарок от сайта PrimaNota.ru

Забрать подарок
ВАМ ПОДАРКИ ОТ ПРОЕКТА
"ГИТАРНАЯ РЕВОЛЮЦИЯ"