PrimaNota.ru - самый крупный в мире бесплатный архив песенных текстов, аккордов, табулатур и нот


Room Eleven - Sad Song - текст песни, бас-таба, видео

Регистрация Запомнить меня
Войти через:  Facebook Google Twitter Vk Yandex Mail.ru

Room Eleven - Sad Song - текст песни, бас-таба, видео

Печатать
Просмотров: 203
Лучшая metal-группа Петербурга
Played on contrabass

The notes aren't difficult, the difficulty of this song is the groove :)


Intro

F#m7               D                E                       Fdim
  1 x 2 x 3 x 4 x |1 x 2 x 3 x 4 x |1 x 2 x 3 x 4 x |1 x 2 x 3 x 4 x |
G|----------------|----------------|----------------|--4---------4---|    
D|4-----4-----2---|----------------|2-----2---------|2-------3-----2-|
A|----------4-----|5-----5-------5-|--------------5-|----------------| 
E|----------------|----------------|----------------|----------------|

F#m7               D                E                       Fdim
  1 x 2 x 3 x 4 x |1 x 2 x 3 x 4 x |1 x 2 x 3 x 4 x |1 x 2 x 3 x 4 x |
G|----------------|----------------|----------------|----------------|    
D|4-----4-----2---|----------------|2---------------|------3---------|
A|----------4-----|5-----5-------5-|---2------------|---2--------2---| 
E|----------------|----------------|------0--------x|00--------------|




Verse

F#m7               D                E                       Fdim
  1 x 2 x 3 x 4 x |1 x 2 x 3 x 4 x |1 x 2 x 3 x 4 x |1 x 2 x 3 x 4 x |
G|----------------|----------------|----------------|--4---------4---|    
D|4-----4-----2---|----------------|2-----2---------|2-------3-----2-|
A|----------4-----|5-----5-------5-|--------------5-|----------------| 
E|----------------|----------------|----------------|----------------|

F#m7               D                E                       Fdim
  1 x 2 x 3 x 4 x |1 x 2 x 3 x 4 x |1 x 2 x 3 x 4 x |1 x 2 x 3 x 4 x |
G|----------------|----------------|----------------|------------4---|    
D|4-----4-----2---|----------------|2---------------|------3--------2|
A|----------4-----|5-----5-------5-|---2------------|---2------------| 
E|----------------|----------------|------0---------|00--------------|

F#m7               D                E                F#m     D      E
  1 x 2 x 3 x 4 x |1 x 2 x 3 x 4 x |1 x 2 x 3 x 4 x |1 x 2 x 3 x 4 x |
G|----------------|----------------|----------------|----------------|    
D|4-----4-----2---|----------------|2-----2---------|4---4---------2-|
A|----------4-----|5-----5-------5-|--------------2-|--------5-5-----| 
E|----------------|----------------|----------------|----------------|

E
  1 x 2 x 3 x 4 x |1 x 2 x 3 x 4 x |
G|----------------|----------------|    
D|----------------|----------------|
A|--------2-2-----|----------------| 
E|----------------|0---------------|



After Verse

F#m7               C#m              D                A       C#7
  1 x 2 x 3 x 4 x |1 x 2 x 3 x 4 x |1 x 2 x 3 x 4 x |1 x 2 x 3 x 4 x |
G|----------------|----------------|----------------|----------------|    
D|4---------------|----------------|----------------|7---------------|
A|----------------|4---------------|5---------------|--------4-------| 
E|----------------|----------------|----------------|----------------|


F#m7               C#m              D                E 
  1 x 2 x 3 x 4 x |1 x 2 x 3 x 4 x |1 x 2 x 3 x 4 x |1 x 2 x 3 x 4 x |
G|----------------|----------------|----------------|----------------|    
D|4---------------|----------------|----------------|2---------------|
A|----------------|4---------------|5---------------|----------2-----| 
E|----------------|----------------|----------------|----------------|


  1 x 2 x 3 x 4 x |
G|----------------|
D|----------------|
A|----------------|
E|0---------------|




Verse 2

F#m7               D                E                       Fdim
  1 x 2 x 3 x 4 x |1 x 2 x 3 x 4 x |1 x 2 x 3 x 4 x |1 x 2 x 3 x 4 x |
G|----------------|----------------|----------------|----------------|    
D|4-----------2---|----------------|2-----2---------|2-----3---------|
A|------4---------|5-----5---------|----------------|----------------| 
E|----------------|----------------|----------------|----------------|

F#m7               D                E                       Fdim
  1 x 2 x 3 x 4 x |1 x 2 x 3 x 4 x |1 x 2 x 3 x 4 x |1 x 2 x 3 x 4 x |
G|----------------|----------------|----------------|----------------|    
D|4-----4---4-2---|----------------|2-----2---------|2---2-3---------|
A|----------------|5-----5---------|--------------2-|----------------| 
E|----------------|----------------|----------------|----------------|

F#m7               D                E                F#m     D     E
  1 x 2 x 3 x 4 x |1 x 2 x 3 x 4 x |1 x 2 x 3 x 4 x |1 x 2 x 3 x 4 x |
G|----------------|----------------|----------------|----------------|    
D|4-----------2---|----------------|2-----2---------|4---4---------2-|
A|------4---------|5-----5---------|--------------2-|--------5-5-----| 
E|----------------|----------------|----------------|----------------|

E
  1 x 2 x 3 x 4 x |1 x 2 x 3 x 4 x |
G|----------------|----------------|    
D|----------------|----------------|
A|--------2-2-----|----------------| 
E|----------------|0---------------|


After verse (see above)

Chorus
(with variations in rhythm and notes)
  A                C#              D                E
  1 x 2 x 3 x 4 x |1 x 2 x 3 x 4 x |1 x 2 x 3 x 4 x |1 x 2 x 3 x 4 x |
G|----------------|----------------|----------------|----------------|    
D|----------------|----------------|----------------|----------------|3x
A|----7---------4-|----4--44---4---|5---5---5--55---|7--7--7---------| 
E|5-------5--55---|----------------|----------------|----7-------0---|


  A                C#              F#m                E
  1 x 2 x 3 x 4 x |1 x 2 x 3 x 4 x |1 x 2 x 3 x 4 x |1 x 2 x 3 x 4 x |
G|----------------|----------------|----------------|----------------|    
D|----------------|----------------|4---------------|2---------------|
A|--------------4-|----4--44---4---|----------------|----------------| 
E|5-------5--55---|----------------|----------------|----------------|


  1 x 2 x 3 x 4 x |
G|----------------|
D|----------------|  
A|----------------|
E|----------------|

Verse 3 (above) 
 
Afterverse (above)

Chorus (above)

Fade out on: (first line of afterverse)

F#m7               C#m              D                A       C#7
  1 x 2 x 3 x 4 x |1 x 2 x 3 x 4 x |1 x 2 x 3 x 4 x |1 x 2 x 3 x 4 x |
G|----------------|----------------|----------------|----------------|    
D|4---------------|----------------|----------------|7---------------|
A|----------------|4---------------|5---------------|--------4-------| 
E|----------------|----------------|----------------|----------------|

Добавлено: 07.05.2012
Другие материалы по этой песне:

Страница создана 24.03.2012
https://primanota.ru/room-eleven/sad-song-chords.htm
Привет, Гость.
Предлагаем пройти революционный курс по гитаре.
Подарок от PrimaNota.Ru, забирай!