Войти:  Facebook Google Twitter Vk Yandex Mail.ru
PrimaNota.ru - самый крупный в мире бесплатный архив песенных текстов, аккордов, табулатур и нот


Роман Филиппов - Слово - табы

Печатать
Поддержи лучшую metal-группу Петербурга!

Слово

  • аккорды, текст

Вступление:
1|-----------------------------------------------------------------------------0----------0--0------
2|-----------------------------------------------------------------------0--------------0------0----
3|-9--9--9--7--5--7--4--5-------------------------------5---------------0---------0----------0-
4|------------------------------2--2--2--2-----------------------2-----------------2--------------
5|--------------------------0-----------------5--3--5--2------3----3------------3----------------
6|----------------------------------------------------------5--------------------5------------------

(532000)                    (4хх430)
Летала судьба без тела,
(532000)              (4хх430)
искала на карте место.
(х53200)                      (х43200)
Мир был страницей белой,
(х53200)                    (0хх130)
планета лепешкой пресной.

В уста не вложили слово,
и слово не вышло боком,
пока не любовь Отцова
и не война порокам.

(x0x210)    (3xx210)    (4xx450)
Под бархатом сны рояля,
(x0x210)    (3xx210)    (2x0230)
но не родился пианист.
(xx0230)            (x4x230)
Евангелие облаками,
(x3x230)        E7
ветер - евангелист.

Проигрыш:
(x 0 7 9 10 0) (x 0 7 9 8 0)
(x 0 7 9 10 0) (x 0 7 9 8 0)
(x07540) (x06430)
Am7

1|---------------------0---
2|-3--1--0--------------0-
3|----------2--1---------
4|-3--2--0--2--2---------
5|--------------------------
6|------------------0------

А после явился гений,
слова превративший в песню -
сердца живого тленье,
cтарой планете пенсия.

Он просто мог обернуться
и стать привокзальным рикшей.
И мылись бы в доме блюдца
без нервотрепки лишней.

Он и рад был взойти на плаху,
да не отпустил орган.
Летит Евангелие от Баха,
евангелист - океан.

Проигрыш:
(x0x213) (x0x210) (x0x230)
(x32013) (x32010) (x32030)
(xx3213) (xx3210) (xx3230)
(0xx130)

Через Старый Оскол в Дрезден,
и обратно, босой до дому.
Разве матери что, не бездарь,
да, быть может, кому чужому.

Поделись табачка отравой -
ну никак я курить не брошу.
Как же долог путь к переправе,
сетую иногда, что не лошадь.

Рад, что видел сердцебиенье
прозрачной воды ручья.
Пил евангелие по Вене,
евангелист не я... 

Проигрыш:
1|--------5--1--3--0--1--3-----0-----------1--------------------------0--4---5-
2|------1----1---------------3-----1----0-----3----3---------------0---------2-
3|---2---------------------------------2--------------2---2--0----1------------2-
4|------------0----------------------------3---------------------2--------------2-
5|-0-----------------------------3--------------------2-------------------------0-
6|----------------------3-----------------------------------------0------------------
https://primanota.ru/roman-filippov/slovo-chords.htm

Привет, гитарист!

Тебе подарок от сайта PrimaNota.ru

Забрать подарок
ВАМ ПОДАРКИ ОТ ПРОЕКТА
"ГИТАРНАЯ РЕВОЛЮЦИЯ"