PrimaNota.ru - самый крупный в мире бесплатный архив песенных текстов, аккордов, табулатур и нот


Rhett And Link - Gmm - таба, видео

Регистрация Запомнить меня
Войти через:  Facebook Google Twitter Vk Yandex Mail.ru

Rhett And Link - Gmm - таба, видео

Печатать
Просмотров: 58
Лучшая metal-группа Петербурга
[Intro]

e|--------------------------------------------------------------------------------|
B|--------------------------------------------------------------------------------|
G|--------------14-------11-----------------14------11----------------14------11--|
D|------12---------------------12----11-------------------12-----9----------------|
A|--------------------------------------------------------------------------------|
E|--------------------------------------------------------------------------------|

e|-----------------------------------------------------------------------------------|
B|-----------------------------------------------------------------------------------|
G|----------------------11---------14------------------------------------------------|
D|-------12-----11--------------------------12---------------------------------------|
A|-----------------------------------------------------------------------------------|
E|-----------------------------------------------------------------------------------| 
Добавлено: 18.03.2018
Другие материалы по этой песне:
  • Аккорды и текст

Страница создана 18.03.2018
https://primanota.ru/rhett-and-link/gmm-chords.htm
Привет, Гость.
Предлагаем пройти революционный курс по гитаре.
Подарок от PrimaNota.Ru, забирай!