Войти:  Facebook Google Twitter Vk Yandex Mail.ru
PrimaNota.ru - самый крупный в мире бесплатный архив песенных текстов, аккордов, табулатур и нот


Red Velvet - Take It Slow - бас-таба

Печатать
Лучшая metal-группа Петербурга

Take It Slow

  • аккорды, текст

Авторы музыки: G-high, 이주형
Авторы текста: G-high, 이주형
Song : https://www.youtube.com/watch?v=WvJ1oFzSg-k



   [intro]
G|--------------|--------------|--------------|-------|
D|--------------|--------------|--------------|-------|
A|--(keyboard)--|--(keyboard)--|--(keyboard)--|--17\--|
E|--------------|--------------|--------------|-------|


G|------------------|----------------|---------------|----------|
D|------------------|-----------5----|---------------|----------|
A|------5/7--7-5-7--|------5--7---5--|----------3-4--|--5--5-5--|
E|--3---------------|--3-------------|--5---5-5------|----------|


   [verse 1]
G|--------------|--------------|--------------|----------------------------------------|
D|--------------|--------------|--------------|------------------12h14p12--------------|
A|--(keyboard)--|--(keyboard)--|--(keyboard)--|---------------------------14\12-10-12--|
E|--------------|--------------|--------------|----------------------------------------|


G|------------------|-------------------|----------------------|----------------|----------------|
D|--9---------------|--7----------------|--7/9-----------------|--------3--3----|----------------|
A|-----------9-8-7--|-----------5----3--|-----------5-6-7------|------3------3--|--5--5-5----9\--|
E|------------------|-------------------|-------------------0--|--1-------------|----------------|


   
G|------------------|----------------|------------5-----------------|
D|------------------|-----------5----|----------5---5-----------5\--|
A|------5/7--7-5-7--|------5--7---5--|--3---3-3------3-3---3--3-----|
E|--3---------------|--3-------------|------------------------------|


G|------------------|---------------|---------------|------------|
D|-----------4-3-2--|---------------|----------2----|------------|
A|--2---2--2--------|---------------|------3-----5--|--5----5-7--|
E|------------------|--0---0-7-6-5--|--5-----5------|------------|


G|------------------|----------------|---------5--------------------|-------------------------------|
D|------------------|-----------5----|-----------5-------------3/4--|--4/9-9-.----------------------|
A|------5/7--7-5-7--|------5--7---5--|--3---3--------3---3--3-------|--------9-7--7-----------------|
E|--3---------------|--3-------------|-------------3----------------|----------------6---6--6--4-5--|


G|----------------------|
D|-------.----.---------|
A|-----7-5-5--5-5---1/--|
E|--5-------------------|


   [verse 2]
G|------------------12--|--19-----------|------------|----------------|
D|--------------12------|-----17\-------|--------12--|----------------|
A|--1/10----------------|-----------12--|------------|--10h12--10h12--|
E|----------------------|---------------|--12h14-----|----------------|


G|----------------12--|------------|---------------------|
D|------------12------|------------|----.------------10--|
A|--10----------------|--17\12-12--|--7-6-5------/10-----|
E|--------------------|------------|---------------------|


G|---------------.--.---------------------|------------------9-10-11---------|
D|--------16\14-12-14---------------------|---------------------------10-----|
A|--14----------------14-----------10-10--|--12---------------------------9--|
E|-----------------------12---------------|----------12-11-x-----------------|


G|-------------------9--|--9-9-----------|----------|----------|
D|--9--------------9----|------10--------|----------|-----19\--|
A|------x-6-----7-------|---------10-----|--5--5-5--|--5/------|
E|------------7---------|-------------8--|----------|----------|


   [verse 3]
G|----------8------|----------------|-----------12--12-12------------------|---------|
D|-------8---------|-------7--8-10--|---------12----------12---.-----------|------7--|
A|--6----------77--|--8-------------|--x1010----------------1010-10----10--|----5----|
E|-----------------|----------------|--------------------------------10----|--8------|


G|-----8----8--|------------------|------------------------7------|------------|--------2--x----|
D|-------8-----|--5-.-------------|--5---5-4-----------.----------|-----5-7-5--|--.-------------|
A|--6----------|---68---8---------|------------xx7---7-5-5--------|--7---------|--4-4--------4--|
E|-------------|-----------5/6-8--|--------------------------778--|------------|----------------|


G|------567------------|-------|
D|----------7----------|--16\--|
A|--5----------5--5-5--|-------|
E|---------------------|-------|


   
G|------------------|----------------|-------5--5------------5--5---5--|
D|------------------|-----------5----|------5------5--5.----5-----5----|
A|------5/7--7-5-7--|------5--7---5--|--3--------------3-3-------------|
E|--3---------------|--3-------------|---------------------------------|

                                                          .
G|--4----------------|---------------|--------------------7--------|
D|----4-------4-3-2--|---------------|--7---------.---7h9---7------|
A|-------2--2--------|---------------|-----7-6-5--5-5---------5----|
E|-------------------|--0---0-7-6-5--|--------------------------5--|


G|------------------|-----------------|--------------|-----------5-----|----------------|---------|-----|
D|------------------|-----------5-----|------5--7-5--|---------5-------|----/9-/12-/18--|---------|-----|
A|------5/7--7-5-7--|------5--7---x5--|--3-----------|--3---3------3\--|--2-------------|----0-1--|-----|
E|--3---------------|--3--------------|--------------|-----------------|----------------|--1------|--5--|


G|--------------|
D|--------------|
A|--7---5--5-5--|
E|----5---------|


   [outro]  
 
G|--1/12--|--12\--|------------------------------|-----------|
D|--------|-------|-------------------------.----|-----------|
A|--------|-------|------------------3-4-5--5-5--|-----------|
E|--------|-------|------------------------------|---1/2-/3--|



******************

/ : slide up
\ : slide down
h : hammer on
p : pull off
x : dead note
. : staccato

***************

in regular sequence !


   
Другие материалы по этой песне:
  • Аккорды, текст

https://primanota.ru/red-velvet/take-it-slow-chords.htm

Привет, гитарист!

Тебе подарок от сайта PrimaNota.ru

Забрать подарок
ВАМ ПОДАРКИ ОТ ПРОЕКТА
"ГИТАРНАЯ РЕВОЛЮЦИЯ"