» 
 » 
Piano Fentazi - Широкий Путин | Wide Putin Meme | Song for denis



Разные - Piano Fentazi - Широкий Путин | Wide Putin Meme | Song for denis - аккорды

Чайковский в рок-аранжировке! Очень необычно, послушай!
Тональность: 
0
Масштаб: 
100%
Прокрутка: 
0
Проще!
Аппликатуры
Нотный режим
Piano Fentazi - Широкий Путин | Wide Putin Meme | Song for denis
Разные
[ Предположительная тональность: D ]

Интро x4

e|---------------------------------------------------------------------------|
B|---------------------------------------------------------------------------|
G|-5--5-5--5-5--3-0-3-5--5--5-5--5-5--7--7-7--7--7---------------------------|
D|---------------------------------------------------------------------------|
A|---------------------------------------------------------------------------|
E|---------------------------------------------------------------------------|

Мост

e|---------------------------------------------------------------------------|
B|-----------------------6--6-6--6-9-6--8--8-8--8-8--------------------------|
G|-5--5-5--5-5--3-0-3-5------------------------------------------------------|
D|---------------------------------------------------------------------------|
A|---------------------------------------------------------------------------|
E|---------------------------------------------------------------------------|

Chorus x2

e|-8-10-11-8---8-10-11-10--8--8-10-11-8---8-10-11-10--15---------------------|
B|--8--------------------------8---------------------------------------------|
G|---------------------------------------------------------------------------|
D|---------------------------------------------------------------------------|
A|---------------------------------------------------------------------------|
E|----------------------------------------------------------------------------
Мост 2]

e|---------------------------------------------------------------------------|
B|-13-12-11-10-9-8-7-6-5-4-3-2-1-0-------------------------------------------|
G|---------------------------------------------------------------------------|
D|---------------------------------------------------------------------------|
A|---------------------------------------------------------------------------|
E|---------------------------------------------------------------------------|

[Chorus]x2

e|-8-10-11-8---8-10-11-10--8--8-10-11-8---8-10-11-10--15---------------------|
B|--8--------------------------8---------------------------------------------|
G|---------------------------------------------------------------------------|
D|---------------------------------------------------------------------------|
A|---------------------------------------------------------------------------|
E|---------------------------------------------------------------------------|


Verse x4

e|---------------------------------------------------------------------------|
B|--8------------------8-9---------------------------------------------------|
G|-0---8-7--8-5--0-5-8------10-8-10------------------------------------------|
D|---------------------------------------------------------------------------|
A|---------------------------------------------------------------------------|
E|---------------------------------------------------------------------------|

Разные - Piano Fentazi - Широкий Путин | Wide Putin Meme | Song for denis - ноты

(включить)
https://primanota.ru/raznye/piano-fentazi-shirokii-putin-wide-putin-meme-song-for-denis-chords.htm