» 
 » 
Карантин



Радиопомехи - Карантин - аккорды

Чайковский в рок-аранжировке! Очень необычно, послушай!
Тональность: 
0
Масштаб: 
100%
Прокрутка: 
0
Проще!
Аппликатуры
Нотный режим
Карантин
Радиопомехи
[ Предположительная тональность: Fm ]

вступление: Fm C Cm Bm => 2 раза
соло:
1)--14-14-14-----------15--15-15------------14-14-14-----------15--15-15-
2)-----------12--12-12-----------14--14-14-----------12--12-12-----------

1)-----------15-15-15-14--14-14-12--12-12-10--10-10--10-10-10-9--9-9-7--
2)14--14-14-------------------------------------------------------------

1)7-7-6--6-6-
2)
бас:
4)--7---------------------------------------5---------------------------
4)------------0---------------------------------------2------------------
куплет:
Fm
Мы лежим на холодном полу.
C
Мы не помним ни дат, ни имен.
Cm
Мы с тобой никому не нужны.
Bm
Нам с тобой и так хорошо.
Fm
Ни подарков, ни звона стекла.
C
За окном наступил новый год.
Cm
К нам с тобой никто не придет.
Bm
Это я объявил карантин.

проигрыш:
Fm C Cm Bm
Fm C Cm Bm
или(либо в две гитары)
2 раза
1)--14-14-14-----------15--15-15------------14-14-14-----------15--15-15-
2)-----------12--12-12-----------14--14-14-----------12--12-12-----------

1)-----------15-15-15-14--14-14-12--12-12-10--10-10--10-10-10-9--9-9-7--
2)14--14-14-------------------------------------------------------------

1)7-7-6--6-6-
2)
куплет:
Безымянная кровь на снегу.
Разноцветные взрывы петард
Беззаботно уносят с собой
Фрагменты оторванных рук.
Так прекрасно быть только вдвоем
И жевать на полу конфетти.
Мы с тобой говорим ни о чем.
Ну, а нужно ли что-то еще?

проигрыш:
Fm C Cm Bm
1)--14-14-14-14-14-14-14--------------------------15-15-15-15-15-15-15-
2)-----------------------12--12-12-12-12-12-12-12----------------------

1)--------------------------15-15-15-15-15-15-15-------------------------
2)14--14-14-14-14-14-14-14-----------------------14--14-14-14-14-14-14-14

1)--14-14-14-14-14-14-14--------------------------14-14-14-12--12-12-15--
2)-----------------------14--14-14-14-14-14-14-14------------------------

1)15-15-----------12--14-14-12-10-9-7-9-10-10-10-10-10-10-10--------14-14
2)------12-12-12---------------------------------------------7--7-7------

1)-14-----
2)-----14-

и 2 раза
1)--14-14-14-----------15--15-15------------14-14-14-----------15--15-15-
2)-----------12--12-12-----------14--14-14-----------12--12-12-----------

1)-----------15-15-15-14--14-14-12--12-12-10--10-10--10-10-10-9--9-9-7--
2)14--14-14-------------------------------------------------------------

1)7-7-6--6-6-
2)
куплет:
Мы лежим на холодном полу.
Мы с тобой никому не нужны.
К нам с тобой никто не придет.
Это я объявил карантин.
Так прекрасно быть только вдвоем
И жевать на полу конфетти.
Ну, а нужно ли что-то еще?
Ну, а нужно ли что-то еще?

Радиопомехи - Карантин - ноты

(включить)
Другие материалы по этой песне:
  • Аккорды, текст

https://primanota.ru/radiopomexi/karantin-chords.htm

Привет, гитарист!

Тебе подарок от сайта PrimaNota.ru

Забрать подарок
ВАМ ПОДАРКИ ОТ ПРОЕКТА
"ГИТАРНАЯ РЕВОЛЮЦИЯ"