Войти:  Facebook Google Twitter Vk Yandex Mail.ru
PrimaNota.ru - самый крупный в мире бесплатный архив песенных текстов, аккордов, табулатур и нот


Radiohead - Silent Spring - аккорды и текст, видео

Печатать
Просмотров: 188
Лучшая metal-группа Петербурга

Silent Spring

  • аккорды и текст
Тональность: 
0
Проще! Аппликатуры

Silent Spring
Radiohead
Tuning: CGCFAD

   Cm7 C7sus2 F/C Cadd2       Cm C7sus2* F/C C*   Cm7 Dm11 Am7 C
D|--5----5-----7----0--0---|--10----8-----7--5--|--5---3----3--2------------|
A|--6----5-----8----7--7---|--x-----x-----8--7--|--6---5----3--3------------|
F|--5----5-----7----7--5h7-|--10----9-----7--7--|--5---4----4--2--2-0-------|
C|--0----0-----0----0--0---|--0-----0-----0--0--|--0---0----0--0------3-2-0-|
G|--0----0-----0----0--0---|--0-----0-----0--0--|--0---0----0--0------------|
C|--0----0-----0----0--0---|--0-----0-----0--0--|--0---0----0--0------------|

    Bb  F5  Fm  Fm*    A#   A   G#  G   C5
D|--0---------------------------------------|
A|--1---3---3-------------------------------|
F|--0---0---3----------9----7---7---7---7---|
C|--2---0---0----------0----0---0---0---0---|
G|--3---x---x----------x----x---x---x---0---|
C|------5---5---6--8---10---9---8---7---0---|

[Intro]
Cm7     C7sus2 F/C Cadd2
Cm7     C7sus2 F/C Cadd2
Cm     C7sus2* F/C C*
Cm7     Dm11 Am7 C
Cm7     Dm11 Am7 C

[Verse]
Cm7     C7sus2 F/C    Cadd2
  Poses like a phantom
Cm7       C7sus2 F/C   Cadd2
  Touches like a breeze
Cm           C7sus2* F/C     C*
  Shines its under---standing
Cm7       Dm11 Am7    C
  See the moon smiling
Cm7    C7sus2 F/C    Cadd2
  Open arm    channels
Cm7     C7sus2 F/C  Cadd2
  Ready to   receive 
Cm               C7sus2* F/C C*
  And we are not at  the mercy
Cm7              Dm11    Am7    C
  Of your shimmerers and spells
Cm7           Dm11    Am7    C
  Your shimmerers and spells
Cm7           Dm11    Am7    C
  Your shimmerers and spells, hmmmm mmmm

[Instrumental]
Cm7     C7sus2 F/C Cadd2

[Verse]
Cm           C7sus2* F/C  C*
  And we are of  the Earth
Cm7         Dm11 Am7 C
  To her we do return
Cm               C7sus2* F/C  C*
  And the future is    inside us
Cm7        Dm11      Am7 C
  It's not somewhere else
Cm7        Dm11      Am7 C
  It's not somewhere else
Cm7        Dm11      Bb
  It's not somewhere else
F5        Cm7     C7sus2 F/C Cadd2
Ooooooh aaaaaaaaaaaaaaaaaaah
Cm7     C7sus2 F/C Cadd2

[Chorus]
Bb  F5        Fm   Fm*
One day at a time
A#   A   G#  G 
Cm7        C7sus2  F/C   Cadd2
  We call upon the people
Cm7      C7sus2   F/C  Cadd2
  People have the power

[Instrumental]
Cm     C7sus2* F/C C*

Cm7     C7sus2  F/C   Cadd2
  Call upon the people
Cm7      C7sus2    F/C  Cadd2
  People have this power
Cm                C7sus2* F/C  C*
  And the numbers don't decide
Cm7           Dm11 Am7 C
  Your system is a lie
Cm7       Dm11    Am7 C
  A river running dry
Cm7            C7sus2 F/C  Cadd2
  The wings of butterflies

[Instrumental]
Cm7        C7sus2  F/C   Cadd2

[Verse]
Cm            C7sus2*      F/C       C*
  And you may pour us away like soup
Cm7                 Dm11   Am7 C
  Like we're pretty broken flowers
Cm7          Dm11 Am7       C
  We'll take back what is ours
Cm7               Dm11      Bb    F5    Fm   Fm*
  We'll take back what is ours

[Outro]
A#  A        G#   G     C5
One day at a time
Добавлено: 17.12.2017
Другие материалы по этой песне:
  • Аккорды и текст

Страница создана 17.12.2017
https://primanota.ru/radiohead/silent-spring-chords.htm

Привет, гитарист!

Тебе подарок от сайта PrimaNota.ru

Забрать подарок
ВАМ ПОДАРКИ ОТ ПРОЕКТА
"ГИТАРНАЯ РЕВОЛЮЦИЯ"