Войти:  Facebook Google Twitter Vk Yandex Mail.ru
PrimaNota.ru - самый крупный в мире бесплатный архив песенных текстов, аккордов, табулатур и нот


Radiohead - Kid A Live - бас-таба

Печатать
ViraMusic 2019 в Петербурге 4 апреля 2019! Скидка 10%!

Kid A Live

  • аккорды, текст

-------------------------------------------------------------------------------
			     Kid A - Radiohead
-------------------------------------------------------------------------------

Tabbed By : veesus
e-mail: edarotagv335@yahoo.com

We've got heads on sticks...

G|-10-10-12-12-15-15-14-14----14-14-12-12-------------------------------------|
D|----------------------------------------------------------------------------|
A|-12-12-13-13-17-17-15-15----15-15-13-13-------------------------------------|
E|----------------------------------------------------------------------------|

G|-12-12-10-10----12-12-10-10--7---7------------------------------------------|
D|------------------------------------10-10-----------------------------------|
A|-13-13-12-12----13-13-12-12-10--10---8-8------------------------------------|
E|----------------------------------------------------------------------------|

Standing in the shadows...
G|--------------------------------(10)----------------------------------------|
D|-15-15-15/---10-10-(3)-(3)--------------------------------------------------|
A|-13-13-13/-----------------\-8-8-8------------------------------------------|
E|--------------8-8---1---1--\------------------------------------------------|

G|--------------------|-------------------------------------------------------|
D|--------------------|-------------------------------------------------------|
A|-1h3-3--3-33--3333--|-------1-----------------------------------------------|
E|--------------------|--1--3-------------------------------------------------|
                       [fill]
   
https://primanota.ru/radiohead/kid-a-live-chords.htm

Привет, гитарист!

Тебе подарок от сайта PrimaNota.ru

Забрать подарок
ВАМ ПОДАРКИ ОТ ПРОЕКТА
"ГИТАРНАЯ РЕВОЛЮЦИЯ"