Войти:  Facebook Google Twitter Vk Yandex Mail.ru
PrimaNota.ru - самый крупный в мире бесплатный архив песенных текстов, аккордов, табулатур и нот


Radiohead - I Will Kid A Version - таба, видео

Печатать
Просмотров: 151
Лучшая metal-группа Петербурга

I Will Kid A Version

  • аккорды и текст

----------------------------------------------------------------- 
I Will By Radiohead
----------------------------------------------------------------- 

BAsically Like Spinning Plates, but reversed.

Tabbed by: sing-66

Tuning: Standard



This tab is based on the top rated chord version of the same song.

             A               A                C#m             C#m
e|------------------------------------------------------------------------|
B|-----------2---------------2-----------------5---------------5----------|
G|-------2-------2-------2-------2---------6-------6-------6-------6------|
D|-----2---2---2---2---2---2---2---2-----6---6---6---6---6---6---6---6----|
A|---0---------------0-----------------4---------------4------------------|
E|------------------------------------------------------------------------|

            G#m             G#m                F#              F#
e|------------------------------------------------------------------------|
B|------------------------------------------------------------------------|
G|-----------5---------------5-----------------3---------------3----------|
D|-------6-------6-------6-------6---------4-------4-------4-------4------|
A|-----6---6---6---6---6---6---6---6-----4---4---4---4---4---4---4---4----|
E|---4---------------4-----------------2---------------2------------------|

             E               E                  F#              F#
e|------------------------------------------------------------------------|
B|------------------------------------------------------------------------|
G|-----------1---------------1------------------3---------------3---------|
D|-------2-------2-------2-------2----------4-------4-------4-------4-----|
A|-----2---2---2---2---2---2---2---2------4---4---4---4---4---4---4---4---|
E|---0---------------0------------------2---------------2-----------------|

             E               E                 G#m             G#m
e|------------------------------------------------------------------------|
B|------------------------------------------------------------------------|
G|-----------1---------------1------------------5---------------5---------|
D|-------2-------2-------2-------2----------6-------6-------6-------6-----|
A|-----2---2---2---2---2---2---2---2------6---6---6---6---6---6---6---6---|
E|---0---------------0------------------4---------------4-----------------|

             F#              F#                A               A
e|------------------------------------------------------------------------|
B|---------------------------------------------2---------------2----------|
G|-----------3---------------3-------------2-------2-------2-------2------|
D|-------4-------4-------4-------4-------2---2---2---2---2---2---2---2----|
A|-----4---4---4---4---4---4---4---4---0---------------0------------------|
E|---2---------------2----------------------------------------------------|

            G#m             G#m                F#              F#
e|------------------------------------------------------------------------|
B|------------------------------------------------------------------------|
G|-----------5---------------5-----------------3---------------3----------|
D|-------6-------6-------6-------6---------4-------4-------4-------4------|
A|-----6---6---6---6---6---6---6---6-----4---4---4---4---4---4---4---4----|
E|---4---------------4-----------------2---------------2------------------|

             E               E                 G#m             G#m
e|------------------------------------------------------------------------|
B|------------------------------------------------------------------------|
G|-----------1---------------1------------------5---------------5---------|
D|-------2-------2-------2-------2----------6-------6-------6-------6-----|
A|-----2---2---2---2---2---2---2---2------6---6---6---6---6---6---6---6---|
E|---0---------------0------------------4---------------4-----------------|

             F#              F#                A               A                G#m             G#m
e|---------------------------------------------------------------------------------------------------------|
B|---------------------------------------------2---------------2-------------------------------------------|
G|-----------3---------------3-------------2-------2-------2-------2-------------5---------------5---------|
D|-------4-------4-------4-------4-------2---2---2---2---2---2---2---2-------6-------6-------6-------6-----|
A|-----4---4---4---4---4---4---4---4---0---------------0-------------------6---6---6---6---6---6---6---6---|
E|---2---------------2---------------------------------------------------4---------------4-----------------|

             A               A                C#m             C#m               G#m             G#m
e|---------------------------------------------------------------------------------------------------------|
B|-----------2---------------2-----------------5---------------5-------------------------------------------|
G|-------2-------2-------2-------2---------6-------6-------6-------6-------------5---------------5---------|
D|-----2---2---2---2---2---2---2---2-----6---6---6---6---6---6---6---6-------6-------6-------6-------6-----|
A|---0---------------0-----------------4---------------4-------------------6---6---6---6---6---6---6---6---|
E|-----------------------------------------------------------------------4---------------4-----------------|

             A               A                C#m             C#m
e|------------------------------------------------------------------------|
B|-----------2---------------2-----------------5---------------5----------|
G|-------2-------2-------2-------2---------6-------6-------6-------6------|
D|-----2---2---2---2---2---2---2---2-----6---6---6---6---6---6---6---6----|
A|---0---------------0-----------------4---------------4------------------|
E|------------------------------------------------------------------------|

            G#m             G#m                F#              F#
e|------------------------------------------------------------------------|
B|------------------------------------------------------------------------|
G|-----------5---------------5-----------------3---------------3----------|
D|-------6-------6-------6-------6---------4-------4-------4-------4------|
A|-----6---6---6---6---6---6---6---6-----4---4---4---4---4---4---4---4----|
E|---4---------------4-----------------2---------------2------------------|

             E               E                  F#              F#
e|------------------------------------------------------------------------|
B|------------------------------------------------------------------------|
G|-----------1---------------1------------------3---------------3---------|
D|-------2-------2-------2-------2----------4-------4-------4-------4-----|
A|-----2---2---2---2---2---2---2---2------4---4---4---4---4---4---4---4---|
E|---0---------------0------------------2---------------2-----------------|

             E               E                 G#m             G#m
e|------------------------------------------------------------------------|
B|------------------------------------------------------------------------|
G|-----------1---------------1------------------5---------------5---------|
D|-------2-------2-------2-------2----------6-------6-------6-------6-----|
A|-----2---2---2---2---2---2---2---2------6---6---6---6---6---6---6---6---|
E|---0---------------0------------------4---------------4-----------------|

             F#              F#                A               A
e|------------------------------------------------------------------------|
B|---------------------------------------------2---------------2----------|
G|-----------3---------------3-------------2-------2-------2-------2------|
D|-------4-------4-------4-------4-------2---2---2---2---2---2---2---2----|
A|-----4---4---4---4---4---4---4---4---0---------------0------------------|
E|---2---------------2----------------------------------------------------|

            G#m             G#m                F#              F#
e|------------------------------------------------------------------------|
B|------------------------------------------------------------------------|
G|-----------5---------------5-----------------3---------------3----------|
D|-------6-------6-------6-------6---------4-------4-------4-------4------|
A|-----6---6---6---6---6---6---6---6-----4---4---4---4---4---4---4---4----|
E|---4---------------4-----------------2---------------2------------------|

             E               E                  F#              F#
e|------------------------------------------------------------------------|
B|------------------------------------------------------------------------|
G|-----------1---------------1------------------3---------------3---------|
D|-------2-------2-------2-------2----------4-------4-------4-------4-----|
A|-----2---2---2---2---2---2---2---2------4---4---4---4---4---4---4---4---|
E|---0---------------0------------------2---------------2-----------------|

             E               E                 G#m             G#m
e|------------------------------------------------------------------------|
B|------------------------------------------------------------------------|
G|-----------1---------------1------------------5---------------5---------|
D|-------2-------2-------2-------2----------6-------6-------6-------6-----|
A|-----2---2---2---2---2---2---2---2------6---6---6---6---6---6---6---6---|
E|---0---------------0------------------4---------------4-----------------|

Добавлено: 17.12.2017
Другие материалы по этой песне:
  • Аккорды и текст

Страница создана 17.12.2017
https://primanota.ru/radiohead/i-will-kid-a-version-chords.htm

Привет, гитарист!

Тебе подарок от сайта PrimaNota.ru

Забрать подарок
ВАМ ПОДАРКИ ОТ ПРОЕКТА
"ГИТАРНАЯ РЕВОЛЮЦИЯ"