Войти:  Facebook Google Twitter Vk Yandex Mail.ru
PrimaNota.ru - самый крупный в мире бесплатный архив песенных текстов, аккордов, табулатур и нот


Radiohead - Daydreaming Interlude - таба, видео

Печатать
Просмотров: 175
Лучшая metal-группа Петербурга

Daydreaming Interlude

  • аккорды и текст

Piano, transposed to guitar.

[Interlude]

"The damage is...

e|-5-----------5-----------|-5-----------5-----------|-5-----------5-----------|-5-----------5-----------|
B|-------7-5-----7-----5-7-|-------7-5-----7-----5-7-|-------6-5-----6-----5-6-|-------6-5-----6-----5-6-|
G|---6-7-----6-----7-6-----|---6-7-----6-----7-6-----|---5-7-----5-----7-5-----|---5-7-----5-----7-5-----|
D|-------------------------|-------------------------|-------------------------|-------------------------|
A|-------------------------|-------------------------|-------------------------|-------------------------|
E|-------------------------|-------------------------|-------------------------|-------------------------|

done."

e|-5-----------5-----------|-5-----------5-----------|-5-----------5-----------|-5-----------5-----------|
B|-------7-5-----7-----5-7-|-------6-5-----6-----5-6-|-------6-5-----6-----5-6-|-------6-5-----6-----5-6-|
G|---4-7-----4-----7-4-----|-----7-----------7-------|---5-7-----5-----7-5-----|---5-7-----5-----7-5-----|
D|-------------------------|---8-------8-------8-----|-------------------------|-------------------------|
A|-------------------------|-------------------------|-------------------------|-------------------------|
E|-------------------------|-------------------------|-------------------------|-------------------------|
Добавлено: 17.12.2017
Другие материалы по этой песне:
  • Аккорды и текст

Страница создана 17.12.2017
https://primanota.ru/radiohead/daydreaming-interlude-chords.htm

Привет, гитарист!

Тебе подарок от сайта PrimaNota.ru

Забрать подарок
ВАМ ПОДАРКИ ОТ ПРОЕКТА
"ГИТАРНАЯ РЕВОЛЮЦИЯ"