» 
 » 
Тихий Суицид



Радикальный метод - Тихий Суицид - аккорды

Чайковский в рок-аранжировке! Очень необычно, послушай!
Тональность: 
0
Масштаб: 
100%
Прокрутка: 
0
Проще!
Аппликатуры
Нотный режим
Тихий Суицид
Радикальный метод
[ Предположительная тональность: Eb ]

Проигрыш: G Bm Fm C
                Gm Bm Fm C
                Gm Bm Fm C
                Gm Bm Fm Fm

Аккорд С играется только на первый такт проигрыша и припева,
в случае, если играете припев или проигрыш два раза,
то на втором кругу в первом такте будет аккорд Gm,
будьте внимательны, не позорьте думерское музыкальное достояние России.

1|-3-----2-0------------0----------2--0-------------------------
2|------------3---2---3-----3--------------3-2--3--0-2--3-----
3|-----------------------------------------------------------------

1|-3-----2-0------------0----------2--0------------------------------
2|------------3---2---3-----3--------------3-2--3------2------0----
3|----------------------------------------------------------------------

 Fm                 C                   Gm           Bm
Не найдя простого смысла жизни
 Fm                 C                   Gm           Bm
В сторону отбросив боль и стыд
Fm                 C      Gm           Bm
Без труда, без страха и без сожаления
Fm                 C                   Gm           Bm
Я пошёл на тихий суицид


Припев:
  G                     Bm                   Fm                 C
Кровь струёй лилась из вены, растворяясь в мыльной пене
  Gm                     Bm                   Fm                 C
Разогнулись, побелели ослабевшие колени
   Gm                     Bm                   Fm                 C
Не найдя простого смысла жизни, я вернулся в вечность
 Gm                     Bm                   Fm                 C
В сторону отбросив мысли, превратился в бесконечность

 Gm   Bm

Fm                 C                   Gm           Bm
Знаю я, что рай не для меня
Fm                 C                   Gm           Bm
Ад - моё пристанище теперь, но всё же
Fm                 C                   Gm           Bm
Жизнь в аду и прозябанье на земле
Fm                 C                   Gm           Bm
Думаю во многом схожи

  G                     Bm                   Fm                 C
Кровь струёй лилась из вены, растворяясь в мыльной пене
Gm                     Bm                   Fm                 C
Разогнулись, побелели ослабевшие колени
Gm                     Bm                   Fm                 C
Не найдя простого смысла жизни, я вернулся в вечность
Gm                     Bm                   Fm                 C
В сторону отбросив мысли, превратился в бесконечность (x2)

1|-3-----2-0------------0----------2--0------------------------------------
2|------------3---2---3-----3--------------3-2--3--0-2--3----------------
3|----------------------------------------------------------------------------

1|-3-----2-0------------0----------2--0-------------------------------
2|------------3---2---3-----3--------------3-2--3------2------0-----
3|-----------------------------------------------------------------------

Радикальный метод - Тихий Суицид - ноты

(включить)
https://primanota.ru/radikalnyi-metod/tixii-suicid.htm