Войти:  Facebook Google Twitter Vk Yandex Mail.ru
PrimaNota.ru - самый крупный в мире бесплатный архив песенных текстов, аккордов, табулатур и нот


Пресняков Игорь - Hallelujah - таба, видео

Печатать
Просмотров: 1289
Лучшая metal-группа Петербурга

Hallelujah

  • аккорды и текст

Transcription of Hallelujah verse played by Igor Presnyakov.
Not 100% accurate but the majority is correct with freedom

http://www.youtube.com/watch?v=6yF5qBGZqNU
 

Tuning:(C# G# C# F# G# C#):half step down from (D A D G A D)

4/4   
|-------0---------|---0----------0-|-----------0----|-----0-----------|
|-----0---0-------|-0----0-----0---|-0-------0------|-----0-----------|
|---0-------0---0-|----------0-----|---0---0--------|-2---2--2---2----|
|-----------------|----------------|------------2s4-|---4------4---0--|
|-------------2---|----------------|-----2----------|------------2----|
|-0---------------|--------0-------|----------------|-0---------------|


|---0--------0---|-0-0-0-----0----|-----0---0-------|---0-----------0-|
|---0--------0---|-0-0-0-----0----|-0---0---0-------|-0---0-------0---|
|---2----2---2---|-----2-2---2----|-4---4---4-----4-|-------4---2-----|
|------4---4---4-|--------------0-|-0---------0-----|---------4-------|
|-2--------------|-5-4-2---2------|-----------------|-----------------|
|--------0-------|----------------|-5-5---5-----5---|---------0-------|


|-------------|-----0------0---|---0----0---0--|
|-------------|-----0------0---|---0----2---2--|
|-----6-------|-2---2--2-----4-|---6----2---2--|
|-5-4-7-----4-|---4------4-----|-0----0--------|
|-----0-------|----------------|--------2-2-2--|
|-------------|-0----------5---|---7-----------|


|-----0-----0----|-2-2---2---2-----|
|-2-----2---4----|-4-4---4---4-1-1-|
|---2-----2-4----|-2-2---2---2-3-3-|
|----------------|-----------------|
|-----2-----4--4-|-0---0---0---1-1-|
|----------------|-----------------|


|------2-2p0---(0)-|-----------<12>--------|
|-1-1--0-0---------|------<12>-------------|
|-3-3--2-2---------|-<12>----------------2-|
|------------------|-------------------4---|
|-1-1--2-2---------|-----------------------|
|------------------|-------------------0---|


|-------0---------|---0-----------------0-|-----<7>--------|
|-0-------0-------|-0---0-------------0---|-0---<7>--------|
|---4-------4---4-|-------4---------0-----|---0-<7>------2-|
|-----0-----------|---------------4-------|------------4---|
|-----------------|---------2-(2)---------|----------------|
|-5-----------5---|-----------------------|------------0---|


|-------0---------|---0-----4-------|-4s5s4-2-----2---0-|-0---------------|
|-0-------0-------|-0-------0-0-----|---------0-----0---|---0-------------|
|---4-------4---4-|-----4-2-2---2---|-----------0-------|-----0-----------|
|-----0-----------|---------4-------|-------------------|---------4-2-4---|
|-----------------|-----------------|-------0-----4-----|-----------------|
|-5-----------5---|---------0-----0-|-------------------|-0-----0---------|

 Ending Chords

|-0--------|-0--------|-4--------|-11----|
|-0--------|-0--------|-0--------|--9----|
|-4--------|-6--------|-2--------|-11----|
|-0--------|-7--------|-4--------|--0----|
|-x--------|-5--------|-0--------|-------|
|-5--------|-5--------|-0--------|-------|


|-0---------4-----|---4s5s4-2-----2---|-0-0--------------|
|-0---------0-0---|-----------0-----0-|-----0------------|
|-4---------2---2-|-------------0-----|-------0----------|
|-0---------4-----|-------------------|-----------4s2s4--|
|-x---------------|---------0-----4---|------------------|
|-5---------0-----|-0-----------------|---0-----0--------|

Добавлено: 23.06.2012
Другие материалы по этой песне:
  • Аккорды и текст

Страница создана 23.06.2012
https://primanota.ru/presnyakov-igor/hallelujah-chords.htm

Привет, гитарист!

Тебе подарок от сайта PrimaNota.ru

Забрать подарок
ВАМ ПОДАРКИ ОТ ПРОЕКТА
"ГИТАРНАЯ РЕВОЛЮЦИЯ"