Войти:  Facebook Google Twitter Vk Yandex Mail.ru
PrimaNota.ru - самый крупный в мире бесплатный архив песенных текстов, аккордов, табулатур и нот


Polysics - What - аккорды и текст, видео

Печатать
Лучшая metal-группа Петербурга

What

  • аккорды и текст
Тональность: 
0
Проще! Аппликатуры

What
Polysics
The guitar is only used in the fast part, last 2 minutes or so.

Verse
    A5   B5   G5   D5      A5   B5   D5   F5
E|----------------------|------------------------|
B|----------------------|------------------------|
G|---2----5---------7---|---2----5----7----10----|
D|---2----5----5----7---|---2----5----7----10----|    x2
A|---0----3----5----5---|---0----3----5----9-----|
E|-------------3--------|------------------------|
    x16  x16  x16  x16...

"What makes me sing, so what...."
    A5   B5   D5   F5
E|------------------------|
B|------------------------|
G|---2----5----7----10----|
D|---2----5----7----10----|    x4
A|---0----3----5----9-----|
E|------------------------|
    x16  x16  x16  x16
Outro
    A5  B5  D5  B5
E|--------------------|
B|--------------------|
G|--------------------|
D|---2---5---7---5----|    x8
A|---0---3---5---3----|
E|--------------------|   
Добавлено: 22.07.2012
Другие материалы по этой песне:
  • Аккорды и текст

Страница создана 22.07.2012
https://primanota.ru/polysics/what-chords.htm

Привет, гитарист!

Тебе подарок от сайта PrimaNota.ru

Забрать подарок
ВАМ ПОДАРКИ ОТ ПРОЕКТА
"ГИТАРНАЯ РЕВОЛЮЦИЯ"