Войти:  Facebook Google Twitter Vk Yandex Mail.ru
PrimaNota.ru - самый крупный в мире бесплатный архив песенных текстов, аккордов, табулатур и нот


Polysics - My Room - бас-таба, видео

Печатать
Лучшая metal-группа Петербурга

My Room

  • аккорды и текст

G|-------------------------|------------------------------|
D|-----2-----2-----2-----2-|----3-----2-----0-----2-------|
A|--3-----3-----3-----3----|-3-----3-----3-----3----------|    (3x)
E|-------------------------|------------------------------|

G|-------------------------|-------------0--0-------------|
D|-----0-----0-----0-----0-|----0-----0--------2--0-------|
A|-------------------------|------------------------------|
E|--3-----3-----3-----3----|-3-----3----------------------|

G|-------------------------|------------------------------|
D|-----2-----2-----2-----2-|----2-----2-----2-----2-------|
A|--3-----3-----3-----3----|-3-----3-----3-----3----------|
E|-------------------------|------------------------------|

Then repeat.
Добавлено: 21.03.2012
Другие материалы по этой песне:
  • Аккорды и текст

Страница создана 21.03.2012
https://primanota.ru/polysics/my-room-chords.htm

Привет, гитарист!

Тебе подарок от сайта PrimaNota.ru

Забрать подарок
ВАМ ПОДАРКИ ОТ ПРОЕКТА
"ГИТАРНАЯ РЕВОЛЮЦИЯ"