Войти:  Facebook Google Twitter Vk Yandex Mail.ru
PrimaNota.ru - самый крупный в мире бесплатный архив песенных текстов, аккордов, табулатур и нот


Polyphia - Amour - табы

Печатать
Лучшая metal-группа Петербурга

Amour


DROP D

e|---------------19-19----17-17--------------------|
b|----------------------------------20-17/19-17----|
g|----16--16--16-------16-------16-----------------|
d|-------------------------------------------------|
a|-------------------------------------------------|
D|-------------------------------------------------|

e|-------------------------------------------------|
b|---------------------15-17--x-17-15-17-19--------|
g|---12/14--9-7-----------------------------17-16--|
d|--------------9-7--------------------------------|
a|-------------------------------------------------|
D|-------------------------------------------------|

e|-------------------------------------------------|
b|--19-17-15-------15-17/19-17-15----15------------|
g|-----------16-14----------------16---------------|
d|-------------------------------------------------|
a|-------------------------------------------------|
D|-------------------------------------------------|

e|----------------19-19----17-17-------------------|
b|--17/19----------------------------30-17/19-17---|
g|--------16--16--------16-------16----------------|
d|-------------------------------------------------|
a|-------------------------------------------------|
D|-------------------------------------------------|

(not sure about this part)               t  t
e|---9-10-9-7-------------|------------------------|
b|------------10-7--------|-15-17--x-17-22-24------|
g|-----------------9-7----|------------------------|
d|---------------------9--|------------------------| 
a|------------------------|------------------------|
D|------------------------|------------------------|

e|---------------------------------------------------------|
b|-----17-15-------15-17/19-17-15-------15-17/19-17-17-17--|
g|-----------16-14----------------16-14--------------------|
d|---------------------------------------------------------|
a|---------------------------------------------------------|
D|---------------------------------------------------------|

e|-------------------------------------------------|
b|-------------------------------------------------|
g|-------------------------------------------------|
d|-------------------------------------------------|
a|------------7////9---5---------------------------|
D|---------------------------9---------------------|



******************
|t   Tapping
|/   Slide up
|x   Dead note
******************   
Другие материалы по этой песне:

https://primanota.ru/polyphia/amour-chords.htm

Привет, гитарист!

Тебе подарок от сайта PrimaNota.ru

Забрать подарок
ВАМ ПОДАРКИ ОТ ПРОЕКТА
"ГИТАРНАЯ РЕВОЛЮЦИЯ"