Войти:  Facebook Google Twitter Vk Yandex Mail.ru
PrimaNota.ru - самый крупный в мире бесплатный архив песенных текстов, аккордов, табулатур и нот


Pixies - Ive Been Tired - текст песни, бас-таба

Печатать
ViraMusic 2019 в Петербурге 4 апреля 2019! Скидка 10%!

Ive Been Tired

  • аккорды, текст
  • gtp-табы

Авторы музыки: Black Francis

-----------------------------------------------------------------------------
			   Pixies - I've Been Tired
-----------------------------------------------------------------------------

Tabbed By : Extra Blood
e-mail: Lenda@ofir.dk

Listen to the song first.

Tuning: Standard

Bass enters at 00:17

1st Riff
G-|---------|---------|---------|
D-|---------|---------|---------|
A-|---------|-0-0-0-0-|-3-3-3-3-|
E-|-3-3-3-3-|---------|---------|

1st Riff Variation
G-|---------|---------|---------|
D-|---------|---------|---------|
A-|---------|-0-0-0-0-|-3-5-3-5-|
E-|-3-3-3-3-|---------|---------|

2nd Riff 02:09 
G-|---------|---------|---------|---------|
D-|---------|---------|---------|---------|
A-|---------|-0-0-0-0-|-3-3-3-3-|---------|
E-|-3-3-3-3-|---------|---------|-3-------|
                                  ^Let Ring

End Riff    (Slow Down)
G-|---------|---------|---------|
D-|*--------|--------*|---------|
A-|*3-3-3-3-|-3-3-3-3*|-3-------|
E-|---------|---------|---------|
                        ^Let Ring

=============================================================================   
https://primanota.ru/pixies/ive-been-tired-chords.htm

Привет, гитарист!

Тебе подарок от сайта PrimaNota.ru

Забрать подарок
ВАМ ПОДАРКИ ОТ ПРОЕКТА
"ГИТАРНАЯ РЕВОЛЮЦИЯ"