Войти:  Facebook Google Twitter Vk Yandex Mail.ru
PrimaNota.ru - самый крупный в мире бесплатный архив песенных текстов, аккордов, табулатур и нот


Pixies - Isla De Enchanta - бас-таба

Печатать
ViraMusic 2019 в Петербурге 4 апреля 2019! Скидка 10%!

Isla De Enchanta

  • аккорды, текст

-----------------------------------------------------------------------------
			   Pixies - Isla De Enchanta
-----------------------------------------------------------------------------

Tabbed By : Extra Blood
e-mail: Lenda@ofir.dk

Tuning: Standard

You really should be abel
to tell when to play what.

Riff 1
G-|----------------|---|
D-|*--------------*|---|
A-|*-2-22-2-1-0-3-*|-2-|
E-|----------------|---|

Riff 2
G-|-------------------|----------------------|
D-|-----2-2-------2-2-|-----2--------2-2-----|
A-|-2-2-----2-2-2-----|-2-2----2-2-2-----2/--|
E-|-------------------|----------------------|

Riff 3
G-|----------------|------------------|-----|
D-|----------------|*----------------*|-----|
A-|----------------|*----------------*|-----|
E-|-3-3-5--3-3-3-5-|-3-3-3-5--3-3-3-5-|-3-5-|

=============================================================================   
https://primanota.ru/pixies/isla-de-enchanta-chords.htm

Привет, гитарист!

Тебе подарок от сайта PrimaNota.ru

Забрать подарок
ВАМ ПОДАРКИ ОТ ПРОЕКТА
"ГИТАРНАЯ РЕВОЛЮЦИЯ"