» 
 » 
Body Aint Me



Pink Sweat$ - Body Aint Me - аккорды

Бесплатный вокальный онлайн-квест VOX7
Тональность: 
0
Масштаб: 
100%
Прокрутка: 
0
Проще!
Аппликатуры
Нотный режим
Body Aint Me
Pink Sweat$
[ Предположительная тональность: G ]

Picking pattern:
   F7M             Cm7             Bm7             B7
e|---------------|---------------|---------------|---------------|
B|-------------7-|-------------7-|-------------8-|-------------5-|
G|---------6-----|---------7-----|---------7-----|---------6-----|
D|-----7---------|-----7---------|-----9---------|-----5---------|
A|-5-------------|---------------|-7-------------|---------------|
E|---------------|-7-------------|---------------|-5-------------|

   G#m7            C7              Bm7             B7
e|---------------|---------------|---------------|---------------|
B|-------------10|-------------7-|-------------8-|-------------5-|
G|---------9-----|---------8-----|---------7-----|---------6-----|
D|-----11--------|-----7---------|-----9---------|-----5---------|
A|-9-------------|---------------|-7-------------|---------------|
E|---------------|-7-------------|---------------|-5-------------|



|F7M   |Cm7 |Bm7 |B7  |
|G#m7  |C7  |Bm7 |B7  |


[Verse 1]
F7M                             Cm7
Used to know you, but I don't know you now
Bm7                       B7
Everything's getting so blurry now
       G#m7                             C7
Vision hurting, I can't stand the look of you now
Bm7                    B7
Everything's different
        F7M                            Cm7
Yeah, I heard you're movin' back from out of town
        Bm7                            B7
Yeah, I heard you travelin' all these miles and miles
      G#m7                           C7
Tryna get back to my love, but it's harder now
Bm7                    B7
Everything's different


[Chorus]
                            F7M       Cm7
Oh, I can't lie, I want you on me
                           Bm7     B7
And girl, I wanna love you closely
                    G#m7     C7
I don't want nobody on you
                   Bm7            B7
If that body ain't me, body ain't me
                     F7M       Cm7
I lied when I said I hate you
                 Bm7          B7
Baby, I was tryna get through
                    G#m7     C7
I don't want nobody on you
                   Bm7            B7
If that body ain't me, body ain't me, yeah


[Verse 2]
F7M                              Cm7
I've been hearin' voices, can't get 'em out
Bm7                            B7
You still playin' cool, but I need you now
       G#m7                      C7
Vision clearer, I can see it all better now
Bm7                    B7
Everything's different
        F7M                          Cm7
Yeah, I know you got a whole lot to figure out
          Bm7                           B7
Just know that I'm always here for you girl, no doubt
       Gm7                            C7
Before buildin' up, sometimes gotta break it down
Bm7                    B7
Everything's different


[Chorus]
                            F7M       Cm7
Oh, I can't lie, I want you on me
                           Bm7     B7
And girl, I wanna love you closely
                    G#m7     C7
I don't want nobody on you
                   Bm7            B7
If that body ain't me, body ain't me
                     F7M       Cm7
I lied when I said I hate you
                 Bm7          B7
Baby, I was tryna get through
                    G#m7     C7
I don't want nobody on you
                   Bm7            B7
If that body ain't me, body ain't me, yeah



|F7M   |Cm7 |Bm7 |B7  |
|G#m7  |C7  |Bm7 |B7  |

Pink Sweat$ - Body Aint Me - ноты

(включить)
https://primanota.ru/pink-sweat/body-aint-me.htm

Привет, гитарист!

Тебе подарок от сайта PrimaNota.ru

Забрать подарок
ВАМ ПОДАРКИ ОТ ПРОЕКТА
"ГИТАРНАЯ РЕВОЛЮЦИЯ"