Войти:  Facebook Google Twitter Vk Yandex Mail.ru
PrimaNota.ru - самый крупный в мире бесплатный архив песенных текстов, аккордов, табулатур и нот


Phum Viphurit - Paper Throne - аккорды

Играешь на гитаре? Зарабатывай! Ищем наставников по гитаре
Тональность: 
0
Проще! Аппликатуры

Paper Throne
Phum Viphurit
this is a kind of softer version, if you want to sound more like the original, just strum it.
be sure to mute the G string, let the G string Go wild
e|---------------------------------------------------------------------------|
B|-10/12-12-10--10/12-12-10--10/12-12-10--10/12-12-10------------------------|
G|-0-----0------0------------0------------0----------------------------------|
D|---------------------------------------------------------------------------|
A|-9/10--10-9---9/10--10-9---9/10--10-9---9/10--10-9-------------------------|
E|---------------------------------------------------------------------------|

e|---------------------------------------------------------------------------|
B|-7/8-8-7--7/8-8-7--7/8-8-7--7/8-8-7--7/8--8/11-----------------------------|
G|-0-----0--0-----0--0-----0--0-----0----------------------------------------|
D|---------------------------------------------------------------------------|
A|-5/6-6-5--5/6-6-5--5/6-6-5--5/6-6-5--5/7--7/9------------------------------|
E|---------------------------------------------------------------------------|

repeat this two times ^^^


************************************

| /  Slide up

************************************


They said, ''Bend your knees
Take our vows and we'll set you free''
Just for now you can drown in gold
'Til your lungs give in

Go stuff yourself with plastic
Forget the things that made you whole
You're made to fit their mold oh

[Chorus]
No I don't need your paper throne
Oh I know the fall won't break my fragile bones
Even the fools know nothing is forever

No I don't need your paper crown
For it won't be long 'til your world comes crashing down
I won't trade my soul for your paper

[Bridge]
Corrupted dreams
Of a child thinking all she needs
For the while is to taste the stars
'til her tongue burns dry

Get rid of all your boundaries
All the things you used to hold

You're under their control

[Chorus]
No I don't need your paper throne
Oh I know the fall won't break my fragile bones
Even the fools know nothing is forever

No I don't need your paper crown
For it won't be long 'til your world comes crashing down
I won't trade my soul for your paper


You're made to fit their mold
You're under their control
You're made to fir their mold
You're under their control
Другие композиции этого автора:
https://primanota.ru/phum-viphurit/paper-throne.htm

Привет, гитарист!

Тебе подарок от сайта PrimaNota.ru

Забрать подарок
ВАМ ПОДАРКИ ОТ ПРОЕКТА
"ГИТАРНАЯ РЕВОЛЮЦИЯ"