Войти:  Facebook Google Twitter Vk Yandex Mail.ru
PrimaNota.ru - самый крупный в мире бесплатный архив песенных текстов, аккордов, табулатур и нот


Phil Collins - Wish It Would Rain - бас-таба

Печатать
Лучшая metal-группа Петербурга

Wish It Would Rain

  • аккорды, текст

Intro the timing on this song is brutal
had this tab for awhile cant remember were i found it
G-----8~----------------------------------------------------|
D--6------5--8/10--------8--65-------------------------5----|
A------------------8--8----------6-----6h8--8--8--8--8------|
E-----------------------------------8-----------------------|

G-----6/8-----------8------------------------------------|
D--6-------5--8/10-----10-----------6-----------------5--|
A--------------------------8-----6-----8--8--8--8--8-----|
E-----------------------------8--------------------------|

Verse 1

G-----8-----------------8------------------------|
D--6-----5--5-----8/10-----10-----------------5--|
A--------------8---------------8--8--8--8--8-----|
E------------------------------------------------|

G-----8~--------------5-------------------------------|
D--6------5--6--5--------6--8/98--6--------6----------|
A------------------8------------------8--6-----8--3---|
E-----------------------------------------------------|

Chorus

G------------------------------------8-----|
D-------------8--6-------------8--6--------|
A--4--6h8--6--------4--6/8--6--------------|
E---------------------------------------6--|

G-----------------------------------------|
D--------3--------6--6--------3--5--6--8--|
A--4--6-----4--6--------4--6--------------|
E-----------------------------------------|

Verse 2

G-----8~-----------------------------------------|
D--6------5--4/5------8--65--6--8-----------5----|
A-----------------8~----------------8--8--8------|
E------------------------------------------------|

G-----8~-----------------5--------------------------------|
D--6------5--5--8/10--------6--8/98--6--------6~----------|
A---------------------8------------------8--6------8--3---|
E---------------------------------------------------------|

Chorus

G-----------------------------------8------------------------|
D----------------5/65--------8--6----------------------6-----|
A--4--6/8--6--6---------4--6--------------4--4--6/8--6-------|
E--------------------------------------4---------------------|

G--------------------|
D--------3--5--6--8--|
A--4--6--------------|
E--------------------|

Bridge

G-----8~-------7/87---------13~--------15/17--16/1715--13-------------|
D--6--------6-------------6----------6-----------------------15--13---|
A---------6-----------8~----------6-----------------------------------|
E---------------------------------------------------------------------|

G-----8~--------7/87---------13~-----------------------8--10--8----|
D--6---------6-------------6----------6--6--8--6--8/10-------------|
A---------6------------8~----------6-------------------------------|
E------------------------------------------------------------------|

Verse 3

G--13--8~-----------------------------------------|
D----------5--8/10-----86--5-----------------5----|
A-------------------8----------6--8--8--8--8------|
E-------------------------------------------------|

G-----8-----5-----------5-------------------------------|
D--6-----5-----6--5--------6--8/98--6--------6----------|
A--------------------8------------------8--6-----8--3---|
E-------------------------------------------------------|

Chorus

G----------------------------------------8---------------------|
D--4--6/8-----5/65----------------8--6-------------------6-----|
A----------6---------6--4--6/8--6--------------4--6/8--6-------|
E-------------------------------------------4------------------|

G---------------------------------|
D--------5--------5--8--6--10--8--|
A--4--6-----8--8------------------|
E---------------------------------|

Outro

G-----8~-----------8---------12--8---------10--------10--10--10---------12--|
D--6------5--8/10-----10------------10--------------------------------------|
A-------------------------8-------------8------8--8--------------8--10------|
E---------------------------------------------------------------------------|

G---------------12/1312------12--10------------------------------------------|
D------13~----------------13----------13--10---------10--6--8/98--6----------|
A--11-------10--------------------------------8~--8-------------------8--6---|
E----------------------------------------------------------------------------|

G-----------------8~-----15------12/1312------12--10--------------------------------|
D--6--------5--6------5------13------------13-----------13--10------------------6---|
A-----8--8------------------------------------------------------11-10--8-----6------|
E-------------------------------------------------------------------------8---------|

G--------------------------------------------8~----------------------------|
D-----------------------------5--5--5--5--6------5--8/10-----5/6-----6--5--|
A--8--8--8--8--8--8--8--8--8------------------------------8-------6--------|
E--------------------------------------------------------------------------|

G----------------------------------------|
D-------------------------------6--86----|
A--6/8--8--8--8--8--8--8--8--8-----------|
E----------------------------------------|   
https://primanota.ru/phil-collins/wish-it-would-rain-chords.htm

Привет, гитарист!

Тебе подарок от сайта PrimaNota.ru

Забрать подарок
ВАМ ПОДАРКИ ОТ ПРОЕКТА
"ГИТАРНАЯ РЕВОЛЮЦИЯ"