Войти:  Facebook Google Twitter Vk Yandex Mail.ru
PrimaNota.ru - самый крупный в мире бесплатный архив песенных текстов, аккордов, табулатур и нот


Pete Droge - Going Whichever Way The Wind Blows - табы, видео

Печатать
Лучшая metal-группа Петербурга

Going Whichever Way The Wind Blows

  • аккорды и текст

                     Going whichever way the wind blows - Pete droge
-------------------------------------------------------------------------------
Tabbed by: ET
Email:calien7@yahoo.com

Tuning: standard

e|-----------------5-----------------------------------------------------------------|
B|-------7------5--------3---2------------------3---2--------------------------------|
G|------------------------------2/4-------2------------------------------------------|
D|-----------------------------------------------------------------------------------|
A|-----------------------------------------------------------------------------------|
E|-----------------------------------------------------------------------------------|

e|---------------------------------------5----------------------------|
B|----------7---8p7------5------3/7--7-5------3--2--------------3--5--|
G|---------------------------------------------------2/4---2----------|
D|--------------------------------------------------------------------|
A|--------------------------------------------------------------------|
E|--------------------------------------------------------------------|   
Добавлено: 05.03.2012
Другие материалы по этой песне:
  • Аккорды и текст

Страница создана 05.03.2012
https://primanota.ru/pete-droge/going-whichever-way-the-wind-blows-chords.htm

Привет, гитарист!

Тебе подарок от сайта PrimaNota.ru

Забрать подарок
ВАМ ПОДАРКИ ОТ ПРОЕКТА
"ГИТАРНАЯ РЕВОЛЮЦИЯ"