# 0 1 2 3 4 5 6 7 8 9 A B C D E F G H I J K L M N O P Q R S T U V W X Y Z
А Б В Г Д Е Ж З И І Й К Л М Н О П Р С Т У Ф Х Ц Ч Ш Щ Ы Э Ю Я
Войти:  Facebook Google Twitter Vk Yandex Mail.ru



Песни из кино и мультфильмов - Зак Шторм - Заставка (Если ты потерян - верь мне) - аккорды

 » 
 » 
Зак Шторм - Заставка (Если ты потерян - верь мне)
Вокальный онлайн-интенсив VOX1
Тональность: 
0
Масштаб: 
100%
Прокрутка: 
0
Проще!
Аппликатуры
Нотный режим
Зак Шторм - Заставка (Если ты потерян - верь мне)
Песни из кино и мультфильмов
[ Предположительная тональность: F ]

Зак Шторм - Если ты потерян

Solo:

E|-----------------------------------------------------------------
B|-----------------------------------------------------------------
G|--------------2-----2-----0--0--0--0--2--3-----------------------
D|--0--0--3--5-----3-----2--------------------0--0--0-----------3--
A|-----------------------------------------------------3--1--3-----
E|-----------------------------------------------------------------

E|-----------------------------
B|-----------------------------
G|-----------------------------
D|--0--0--0--2--3--3--2--0--2--
A|-----------------------------
E|-----------------------------

               Bm          C
Если ты потерян - верь мне
F             Bm
Окажусь я рядом с тобой
        Gb      C     Bm               F
В награду стану я за друга спиной

Если ты потерян - верь мне
Я для всех нас выход найду
В трудную минуту друга не подведу

Если ты потерян - верь мне
Ведь в нелегкой борьбе
Зак примчится как ветер
И поможет тебе

Песни из кино и мультфильмов - Зак Шторм - Заставка (Если ты потерян - верь мне) - ноты

(включить)
https://primanota.ru/pesni-iz-kino-i-multfilmov/zak-shtorm-zastavka-esli-ty-poteryan-ver-mne-chords.htm

Привет, гитарист!

Тебе подарок от сайта PrimaNota.ru

Забрать подарок
ВАМ ПОДАРКИ ОТ ПРОЕКТА
"ГИТАРНАЯ РЕВОЛЮЦИЯ"