» 
 » 
Game Of Thrones - The Night King



Песни из кино и мультфильмов - Game Of Thrones - The Night King - аккорды

Чайковский в рок-аранжировке! Очень необычно, послушай!
Тональность: 
0
Масштаб: 
100%
Прокрутка: 
0
Проще!
Аппликатуры
Нотный режим
Game Of Thrones - The Night King
Песни из кино и мультфильмов
[ Предположительная тональность: D ]

[Full Song]

e|--5-------5-8-8-5--------|-5-------5-8-8-5---------|-12---------8-8-10-------|-8-------5-8-8-12--------|
B|-------------------------|-5-------5-----5---------|-10-------10-------------|---------------10--------|
G|-------------------------|-------------------------|----------------7--------|-7-------------9---------|
D|-------------------------|-------------------------|-7--------------9--------|---------------7---------|
A|-------------------------|-------------------------|-------------------------|-------------------------|
E|-------------------------|-------------------------|-------------------------|-------------------------|

e|-12----------8-8-10------|-8---------5-5-4---------|------------8-8--8p7-----|---8-8--8----------------|
B|-10--------10------------|---------6-----5---------|-------------------------|----------10-------------|
G|------------------9------|-7-----------------------|--------9--------------9-|-------------------9-----|
D|-7----------------7------|-------------------------|-7---7-----7-----7----7--|--7----------------9-----|
A|-------------------------|---------------7---------|-------------------------|--------7------7---------|
E|-------------------------|-------------------------|-------------------------|-------------------------|

e|-------------------------|-------------------------|-5-8-8---8-7-------------|--8-8---8-5----------|
B|--10-10---10-------------|-------------------------|---5-------5-----5-------|----5----------------|
G|------------10-----------|---10-10-9---------------|-------------------------|----------4----------|
D|-------------------10----|----------------7--------|-7-------7------7--------|-7--------------9----|
A|-7-----------------8-----|----------------7--------|-------------------------|--------------7------|
E|----------8-------8------|-8-------5----5----------|-5--------------5--------|--------0------------|

e|-------------------------|-------------------------|-------------------------|-------------------------|
B|-10-10---10--------------|-------------------------|-------5-----------------|-------------------------|
G|-----------10------------|-10-10--10-9-------------|---7---6-------5-5-------|-----5-5----2---2-5-5-2--|
D|----9-------7------7-----|----7--------------------|---8----------7---7------|-7--7---7----------------|
A|-7-----------------------|-----------5-----5-----5-|-------------------------|-------------------------|
E|-0-------8------8--------|-8------6-----6-----6----|-------5-----------------|-4----------2------------|

e|-------------------------|-------------------------|-----------------5-5-----|-------------------5-5---|
B|-------------------------|-------------------------|--------------5-5-----(5)|------------------5------|
G|-------5-5-4--------5-5--|-----5-5-4---2--2-5-5-2--|-----5-5-4---------------|--------5-5-----2--------|
D|-7---7----------7--7---7-|-7--7--------------------|-7--7---------7----------|-7--7--7----7------------|
A|-------------------------|-------------------------|-------------------------|----------------3----3---|
E|-4--------------5--------|-4-----------2-----------|-4------------5----------|-5--5--0----0------------|

e|---------------------5-5-|---5-5-------------------|-----5-5----5-5-----------|----------5-8-8-7-5-5-8-8-5-|
B|--------------------5----|--5----------------------|--3p5------5--------------|-------------------8--------|
G|-2-5-5-4-----------------|---------5-5-4-----5-5-4-|-2--------2-------5-5-----|--5-5-----------------------|
D|-------------------------|-7------7-----7-5-7------|----------------7----8-7p5|-7---8----------------------|
A|-2-----2-----------------|-------------------------|-3--------3---------------|----------------------------|
E|--------------------5----|-5------0---------0------|----------------6---------|-6--------5---------5-------|

e|-5-8-8-7-5-5-10-10-----5-8|8-7-5-5-8-8-5---5-8-8-5---|--------------------------|--13---13-13-13h12--------|
B|----------8-------10------|-----8--------------------|--------------------------|--------------------------|
G|--------------------------|--------------------------|--5-5------------5-5------|--------------------------|
D|--------------------------|--------------------------|-7---7----------7---7-----|--------------------------|
A|-----------------------3--|------3-------------------|--------------------------|-12-----------13----------|
E|-0---------0-------0------|----------------6---------|-6------6s5---------------|--------------------------|

e|-13--13-13--13h10---------|--10--10-10--10-----------|--------------------------|------3--------3--------3-|
B|--------------------------|---------------11---------|--11--11-11-10------------|-6--------6----3----6-----|
G|--------------------------|--------------------------|--------------------------|-7--------7---------7-----|
D|--------------------------|--------------------------|--------------------------|--------------------------|
A|-10---------12------------|-13-----------------------|--------------------------|-5------------------5-----|
E|--------------------------|-------------13-----------|-10---------9-------------|--------------------------|

e|-----3--------------------|--------------------------|--------------------------|--------------------------|
B|-6---3----6-6-6-6-6-6-6-8-|---------4-4-4-4-4-4-4-3--|--------------------------|--------------------------|
G|-7--------7-7-7-7-7-7-7-7-|---------5-5-5-5-5-5-5-4--|--------------------------|--------------------------|
D|-----------------5--------|--------------------------|--------------------------|--------------------------|
A|---------5----------------|--------6-------8------5--|-3---3-6-6-3--3---3-6-6-3-|-3---3-6-6-3--3--3-6-6-5--|
E|--------------------------|--------------------------|--------------7-----------|-5---------5--7--------7--|

e|--------------------------|------------------8------|------8----------8---------|8-------------------------|
B|--------1----1-4-4-1-----1|----1-4-4-3------8-8-----|-----8-8--------8-8-------8|-8------1-4-3-1-1-4-4-1---|
G|------0---0-0-----------0-|-0-0------------8---8----|----8---8------8---8-----8-|--8------------3----------|
D|----3------3-----------3--|--3-----------10-----10--|--10-----10--10-----10-10--|---10---------------------|
A|-3-----------3--------2---|----2--------0-----------|-0-------------------------|-------3------------------|
E|--------------------------|-------------------------|------------7---------7----|----------------3---------|

e|-----------1-1------------|---------3-3-------------|-------------3----3---3---3|---3---3---3---3----------|
B|--1-4-3-1-1---1---1-------|-------------------4-4-3-|---------------------------|------------------4-4-4-3|
G|---------3------------0---|--3-5---5---5-----5------|-----3-5~---5-5--5---5---5-|--5---5---5---5-----------|
D|------------------3-------|-6-----------------------|-5--6----------------------|--------------------------|
A|----------1-------3---3---|----------------3--------|---------------------------|-----------------3--------|
E|-4--------------------3---|-4--------------3--------|---------------------------|--------------------------|

e|---3--3-------------------|--------------------------|--------------------------|--------------------------|
B|--4--4--4-4-4-4-----------|--------------------------|--------------------------|--------------------------|
G|-5--5----------5-------5-5|-5-5--------------------5-|--------------------------|--------------------------|
D|--------------------------|----6---6-6-6--6-5--3-1---|--------------------------|--------------------------|
A|--------------------3-----|-----------------2--2-2-3-|--------------------------|--------------------------|
E|--------------------3-----|-----------------3--1-1-3-|--------------------------|--------------------------|

Песни из кино и мультфильмов - Game Of Thrones - The Night King - ноты

(включить)
https://primanota.ru/pesni-iz-kino-i-multfilmov/game-of-thrones-night-king-chords.htm

Привет, гитарист!

Тебе подарок от сайта PrimaNota.ru

Забрать подарок
ВАМ ПОДАРКИ ОТ ПРОЕКТА
"ГИТАРНАЯ РЕВОЛЮЦИЯ"