PrimaNota.ru - самый крупный в мире бесплатный архив песенных текстов, аккордов, табулатур и нот


Parquet Courts - Everyday It Starts - таба, видео

Регистрация Запомнить меня
Войти через:  Facebook Google Twitter Vk Yandex Mail.ru

Parquet Courts - Everyday It Starts - таба, видео

Печатать
Просмотров: 80
Лучшая metal-группа Петербурга
Авторы: Parquet Courts

Parquet Courts - Everyday It Starts
     Content Nausea - 2014
_____________________________________________________________________

Bass and Rhythm Guitar are played in E Standard, not downtuned 

[Refrain]
Bass (Sean Yeaton)
e|------------|----------------|----------------|--------------|
B|------------|----------------|----------------|--------------|
G|------------|----------------|----------------|--------------|
D|-------7----|-----------7----|-----------7----|--------------|
A|-5---5---5--|-5---5---5---5--|-5---5---5---5--|-5---5-3~-----|
E|------------|----------------|----------------|--------------|

Rhythm (Austin Brown)

e|----------------|----------------|----------------|----------------|
B|----------------|----------------|----------------|----------------|
G|----------------|----------------|----------------|----------------|
D|---7---7---7---7|---7---7---7---7|---7---7---7---7|---7---7---7---7|
A|-5---5---5---5--|-5---5---5---5--|-5---5---5---5--|-5---5---5---5--|
E|----------------|----------------|----------------|----------------|

Everyday it starts
Everyday it starts
Everyday it starts
Anxiety

Anxiety

Everyday it starts
Everyday it starts

Anxiety, anxiety

[Solo]
**Andrew is known to tune his guitar down to an alternate Drop C tuning, as shown below;
Main Riff (Andrew Savage)

e|--------------------------------|----------------------------|------------------------------------------|
B|--------------------------------|----------------------------|------------------------------------------|
G|--------------------------------|----------------------------|------------------------------------------|
D|--------------------------------|----------------------------|------------------------------------------|
G|-------5---------5-------5---5\4|-------4-----4-------4---4/5|-------5-----5-------5---5/7--------------|
C|---2-------2---------2-----2----|---2-------------2-----2----|---2-------------2-----2-------0~------4~-|


And I never sleep but I go to bed 

******************************************************************************************

| ~  Hold note/Let ring out (I know this normally means vibrato)
| \  Slide up
| /  Slide down

******************************************************************************************
Добавлено: 20.01.2018
Вам также может быть интересно:
Другие материалы по этой песне:
  • Аккорды и текст

Страница создана 20.01.2018
https://primanota.ru/parquet-courts/everyday-it-starts-chords.htm
Привет, Гость.
Предлагаем пройти революционный курс по гитаре.
Подарок от PrimaNota.Ru, забирай!