Войти:  Facebook Google Twitter Vk Yandex Mail.ru
PrimaNota.ru - самый крупный в мире бесплатный архив песенных текстов, аккордов, табулатур и нот


Parokya Ni Edgar - First Day Funk - текст песни, табы, бас-таба

Печатать
Лучшая metal-группа Петербурга

First Day Funk

  • аккорды, текст


im sure that is 99% sure of dis tab

Solo :

e|---------------------------------------------------------------------------|
B|---b8--8-5-----------------------------------------------------------------|
G|------------b7--7-5----5h7-777777---5h7-5---4h5p4h5p4----------------------|
D|---------------------7-------------7---------------------------------------|
A|---------------------------------------------------------------------------|
E|---------------------------------------------------------------------------|

e|---------------------------------------------------------------------------|
B|---------------------------------------------------------------------------|
G|---------------------------------------------------------------------------|
D|-------5---b7--5---5--7-5--7-5----6s7-7------------------------------------|
A|---5s7---7-------7--------------7------------------------------------------|
E|---------------------------------------------------------------------------|

e|-----------------------------------------------------8---------------------|
B|--------------------------------------5-8-5---8s10-------------------------|
G|-----5---5-7--b7-5---5-7-b7--b7--b7-b7-------------------------------------|
D|---7---7-----------7-------------------------------------------------------|
A|---------------------------------------------------------------------------|
E|---------------------------------------------------------------------------|

e|---------------------------------------------------------------------------|
B|---b8-5--7---5--7-5--5-7-5-------13---12-----10----------------------------|
G|-----------6-------6---------------------9s11---11-9--12-12-11-------------|
D|-------------------------------14---14-------------------------------------|
A|---------------------------------------------------------------------------|
E|---------------------------------------------------------------------------|

e|---------------------------------------------------------------------------|
B|-----12---10-----8------------------------10---8----5----------------------|
G|-------------7s9---9-7--10-10-9--9~-9~-----------6s8--8-6--9-9-8---9-9--b9~|
D|---12---12-------------------------------9---9-----------------------------|
A|---------------------------------------------------------------------------|
E|---------------------------------------------------------------------------|

e|---------------------------------------------------------------------------|
B|---5--7s9-9-9-9-9--10--12--------------------------------------------------|
G|---------------------------------------------------------------------------|
D|---------------------------------------------------------------------------|
A|---------------------------------------------------------------------------|
E|---------------------------------------------------------------------------|   
https://primanota.ru/parokya-ni-edgar/first-day-funk-chords.htm

Привет, гитарист!

Тебе подарок от сайта PrimaNota.ru

Забрать подарок
ВАМ ПОДАРКИ ОТ ПРОЕКТА
"ГИТАРНАЯ РЕВОЛЮЦИЯ"