Войти:  Facebook Google Twitter Vk Yandex Mail.ru
PrimaNota.ru - самый крупный в мире бесплатный архив песенных текстов, аккордов, табулатур и нот


Papa Roach - I Almost Told You That I Loved You - текст песни, табы, бас-таба

Печатать
ViraMusic 2019 в Петербурге 4 апреля 2019! Скидка 10%!

I Almost Told You That I Loved You

  • аккорды, текст
  • gtp-табы

Авторы музыки: Tobin Esperance
Авторы текста: James Michael, Jacoby Shaddix
Guitar 1
e|-----------------------------------------|
B|-----------------------------------------|
G|----2p0----0------3h4p2-------2h3p2------|x6
D|--------2----2--5---------5-----------5--|
A|-----------------------------------------|
E|-----------------------------------------|


Guitar 2
e|---------------------|
B|---------------------|
G|---------------------|    x2
D|----2--0-2--0--2-----|
A|----2--0-2--0--2-----|
E|----2--0-2--0--2-----|   
https://primanota.ru/papa-roach/i-almost-told-you-that-i-loved-you-chords.htm

Привет, гитарист!

Тебе подарок от сайта PrimaNota.ru

Забрать подарок
ВАМ ПОДАРКИ ОТ ПРОЕКТА
"ГИТАРНАЯ РЕВОЛЮЦИЯ"