Войти:  Facebook Google Twitter Vk Yandex Mail.ru
PrimaNota.ru - самый крупный в мире бесплатный архив песенных текстов, аккордов, табулатур и нот


Papa Roach - American Dreams - табы

Играешь на гитаре? Зарабатывай! Ищем наставников по гитаре

PM    -  -  -  -  -  -  -  -    -  -  -  -  -  -  -  - 
C#|---------------------------|---------------------------|
G#|---------------------------|---------------------------|
E |---10-10-10-10-10----------|---------------------------|
B |------------------10-10-10-|-12-12-12-12-12------------|
F#|---------------------------|----------------12-12-12---|
B |---------------------------|---------------------------|

PM    -  -  -  -  -  -  -  -    -  -  -  -  -  - - -
C#|---------------------------|------------------------|
G#|---------------------------|------------------------|
E |---10-10-10-10-10----------|----------------9-9-9---|
B |------------------11-11-11-|-12-12-12-12-12---------|
F#|---------------------------|------------------------|
B |---------------------------|------------------------|

C#|---------------------------|-----------------------------|
G#|---------------------------|-----------------------------|
E |---------------------------|-----------------------------|
B |---0-0-0-0-3-3-8-8-8-8-3-3-|-0-0-0-0-3-3-8-8-8-8-10-10---|
F#|---0-0-0-0-3-3-8-8-8-8-3-3-|-0-0-0-0-3-3-8-8-8-8-10-10---|
B |---0-0-0-0-3-3-8-8-8-8-3-3-|-0-0-0-0-3-3-8-8-8-8-10-10---|

C#|---------------------------|-----------------------------|
G#|---------------------------|-----------------------------|
E |---------------------------|-----------------------------|
B |---0-0-0-0-3-3-8-8-8-8-3-3-|-0-0-0-0-3-3-8-8-8-8-10-10---|
F#|---0-0-0-0-3-3-8-8-8-8-3-3-|-0-0-0-0-3-3-8-8-8-8-10-10---|
B |---0-0-0-0-3-3-8-8-8-8-3-3-|-0-0-0-0-3-3-8-8-8-8-10-10---|


[Verse]
PM    -  -  -  -  -  -  -  -    -  -  -  -  -  -  -  -
C#|---------------------------|---------------------------|
G#|---------------------------|---------------------------|
E |---10-10-10-10-10----------|---------------------------|
B |------------------10-10-10-|-12-12-12-12-12------------| x3
F#|---------------------------|----------------12-12-12---|
B |---------------------------|---------------------------|

PM    -  -  -  -  -  -  -  -    -  -  -  -  -  - - - 
C#|---------------------------|------------------------|
G#|---------------------------|------------------------|
E |---10-10-10-10-10----------|----------------9-9-9---|
B |------------------11-11-11-|-12-12-12-12-12---------|
F#|---------------------------|------------------------|
B |---------------------------|------------------------|


[Chorus]
C#|---------------------------|-----------------------------|
G#|---------------------------|-----------------------------|
E |---------------------------|-----------------------------|
B |---0-0-0-0-3-3-8-8-8-8-3-3-|-0-0-0-0-3-3-8-8-8-8-10-10---| x2
F#|---0-0-0-0-3-3-8-8-8-8-3-3-|-0-0-0-0-3-3-8-8-8-8-10-10---|
B |---0-0-0-0-3-3-8-8-8-8-3-3-|-0-0-0-0-3-3-8-8-8-8-10-10---|


[Post-Chorus]
C#|--------------------------|----------------8-5-----|
G#|---10----10----10----8----|-10----10----10-----6---|
E |------10----10----10---10-|----10----10------------|
B |--------------------------|------------------------|
F#|--------------------------|------------------------|
B |--------------------------|------------------------|


[Verse]
PM    -  -  -  -  -  -  -  -    -  -  -  -  -  -  -  -
C#|---------------------------|---------------------------|
G#|---------------------------|---------------------------|
E |---10-10-10-10-10----------|---------------------------|
B |------------------10-10-10-|-12-12-12-12-12------------| x3
F#|---------------------------|----------------12-12-12---|
B |---------------------------|---------------------------|

PM    -  -  -  -  -  -  -  -    -  -  -  -  -  - - - 
C#|---------------------------|------------------------|
G#|---------------------------|------------------------|
E |---10-10-10-10-10----------|----------------9-9-9---|
B |------------------11-11-11-|-12-12-12-12-12---------|
F#|---------------------------|------------------------|
B |---------------------------|------------------------|


[Chorus]
C#|---------------------------|-----------------------------|
G#|---------------------------|-----------------------------|
E |---------------------------|-----------------------------|
B |---0-0-0-0-3-3-8-8-8-8-3-3-|-0-0-0-0-3-3-8-8-8-8-10-10---| x2
F#|---0-0-0-0-3-3-8-8-8-8-3-3-|-0-0-0-0-3-3-8-8-8-8-10-10---|
B |---0-0-0-0-3-3-8-8-8-8-3-3-|-0-0-0-0-3-3-8-8-8-8-10-10---|


[Bridge]
-Clean Guitar- 1:59
C#|--------------------------|----------------8-5-----|
G#|---10----10----10----8----|-10----10----10-----6---|
E |------10----10----10---10-|----10----10------------|
B |--------------------------|------------------------| x5
F#|--------------------------|------------------------|
B |--------------------------|------------------------|

-Solo Guitar- 2:08
C#|------------------|--------------------|
G#|------8----8-10---|------10-13-10------|
E |---10---10--------|---10----------10---|
B |------------------|--------------------| x2
F#|------------------|--------------------|
B |------------------|--------------------|


[Chorus]
-Rhythm Guitar-
C#|---------------------------|-----------------------------|
G#|---------------------------|-----------------------------|
E |---------------------------|-----------------------------|
B |---0-0-0-0-3-3-8-8-8-8-3-3-|-0-0-0-0-3-3-8-8-8-8-10-10---| x4
F#|---0-0-0-0-3-3-8-8-8-8-3-3-|-0-0-0-0-3-3-8-8-8-8-10-10---|
B |---0-0-0-0-3-3-8-8-8-8-3-3-|-0-0-0-0-3-3-8-8-8-8-10-10---|

-Solo Guitar- 2:44
C#|-----------------------------|--------------------------------|
G#|---/10-8-6~-----13-10-8-6~---|------13-18-13-15~---8-10-8-6---|
E |------------/10--------------|---10-------------10------------|
B |-----------------------------|--------------------------------| 
F#|-----------------------------|--------------------------------|
B |-----------------------------|--------------------------------|


************************************

| /   Slide-up
| p   Pull-off
| PM  Palm mute
| ~   Vibrato

************************************
Другие материалы по этой песне:
  • Аккорды, текст

https://primanota.ru/papa-roach/american-dreams-chords.htm

Привет, гитарист!

Тебе подарок от сайта PrimaNota.ru

Забрать подарок
ВАМ ПОДАРКИ ОТ ПРОЕКТА
"ГИТАРНАЯ РЕВОЛЮЦИЯ"