Войти:  Facebook Google Twitter Vk Yandex Mail.ru
PrimaNota.ru - самый крупный в мире бесплатный архив песенных текстов, аккордов, табулатур и нот


Onsind - Annie - аккорды и текст, видео

Печатать
Просмотров: 60
Лучшая metal-группа Петербурга

Annie

  • аккорды и текст
Тональность: 
0
Проще! Аппликатуры

Annie
Onsind
[Intro]

e|---------------------------------------------------------------|
B|---------------------------------------------------------------|
G|---0h2p0-5-2-------0h2p0---------------------------------------|
D|--------------3-3-------------0h2p0----------------------------|
A|-0------------------------3-3----------------------------------|
E|---------------------------------------------------------------| x 3

e|---------------------------------|
B|---------------5-----------------|
G|---0h2p0-5-2---5---5-------------|
D|---------------3---5-------------|
A|-0-----------------3-------------|
E|---------------------------------|


[Verse]
Am                    F   C
  I had a dream about you,
Am            F         C           Am
  We shared a house and your sweet tooth,
               F       C     Am
Caught hold of me, now Misery,
              F   C
Won't set me free.

Am                    F   C
  I had a dream about you,
Am           F       C
  Old Mother Nature showed up too,
Am           F         C
  And in her rage, she left me,
Am                   F       C
Crippled, burned and bruised.


[Interlude]
e|---------------------------------------------------------------|
B|---------------------------------------------------------------|
G|---0h2p0-5-2-------0h2p0---------------------------------------|
D|--------------3-3-------------0h2p0----------------------------|
A|-0------------------------3-3----------------------------------|
E|---------------------------------------------------------------| x 3

e|---------------------------------|
B|---------------5-----------------|
G|---0h2p0-5-2---5---5-------------|
D|---------------3---5-------------|
A|-0-----------------3-------------|
E|---------------------------------|


[Verse]
Am                    F    C
  I had a dream about you,
Am                  F         C
Redemption pounding down such cold abuse,
Am           F        C          Am
  And in the text, we missed the clues,
              F   C
We bought the ruse,

Am                  F   C
I had a dream about you,
Am                F     C      Am
Helpless children dying on the news,
          F      C   Am             F     C
Such an unnatural subversion of the rules,


[Interlude]
e|---------------------------------------------------------------|
B|---------------------------------------------------------------|
G|---0h2p0-5-2-------0h2p0---------------------------------------|
D|--------------3-3-------------0h2p0----------------------------|
A|-0------------------------3-3----------------------------------|
E|---------------------------------------------------------------| x 3

e|---------------------------------|
B|---------------5-----------------|
G|---0h2p0-5-2---5---5-------------|
D|---------------3---5-------------|
A|-0-----------------3-------------|
E|---------------------------------|


[Bridge]
Am
  Tell me a story,
F
 And make it good,
Am
  An accidental author with a,
F
 Detrimental taste for blood,
Am
  Annie's claiming violence as a
F
 feminine trait,
Am
  Let's ditch compliance,
F
 We're not constrained to fate,
   Am                           F
So tonight I'll be Liberace for you,
                                Am
Please show me all that you can do,
                      F
I'll be Liberace for you

Am                      F
  I'll be Liberace for you
                                C
Please show me all that you can do
                              G
Let's rip the pages from this paperback,
     G#         Am
It's our story too.

                      F
  I'll be Liberace for you
                                C
Please show me all that you can do
                              G
Let's rip the pages from this paperback,
     G#         Am
It's our story too.


[Outro]
e|---------------------------------------------------------------|
B|---------------------------------------------------------------|
G|---0h2p0-5-2-------0h2p0---------------------------------------|
D|--------------3-3-------------0h2p0----------------------------|
A|-0------------------------3-3----------------------------------|
E|---------------------------------------------------------------| x 3

e|---------------------------------|
B|---------------5-----------------|
G|---0h2p0-5-2---5---5-------------|
D|---------------3---5-------------|
A|-0-----------------3-------------|
E|---------------------------------|

Am
I had a dream about you

e|---------------------------------------------------------------|
B|---------------------------------------------------------------|
G|---0h2p0-5-2-------0h2p0---------------------------------------|
D|--------------3-3-------------0h2p0----------------------------|
A|-0------------------------3-3----------------------------------|
E|---------------------------------------------------------------| x 3

e|---------------------------------|
B|---------------5-----------------|
G|---0h2p0-5-2---5---5-------------|
D|---------------3---5-------------|
A|-0-----------------3-------------|
E|---------------------------------|

end on Am
Добавлено: 28.05.2018
Другие материалы по этой песне:
  • Аккорды и текст

Страница создана 28.05.2018
https://primanota.ru/onsind/annie-chords.htm

Привет, гитарист!

Тебе подарок от сайта PrimaNota.ru

Забрать подарок
ВАМ ПОДАРКИ ОТ ПРОЕКТА
"ГИТАРНАЯ РЕВОЛЮЦИЯ"