Войти:  Facebook Google Twitter Vk Yandex Mail.ru
PrimaNota.ru - самый крупный в мире бесплатный архив песенных текстов, аккордов, табулатур и нот


Of Mice And Men - You Make Me Sick - табы, бас-таба

Печатать
Лучшая metal-группа Петербурга

You Make Me Sick

  • аккорды, текст
  • gtp-табы

Title: You Make Me Sick
Artist: Of Mice & Men
Album: Restoring Force
Tempo = 110

Legend
L - tied note
x - dead note
h - hammer on/pull off
b - bend
s - slide
~ - vibrato
g - ghost note
> - accentuated note
t - trill
M - palm mute
. - staccato
P - popping (bass)
S - slapping (bass)
+ - tapping
W - wide vibrato
< - fade in
w - whammy bar
= - tremolo picking
v - brush up
^ - brush down
V - pick stroke up
n - pick stroke down

ORDER OF GUITARS:
1.) Guitar 1
2.) Guitar 2
3.) Bass


GUITAR ONE
                                                        
D |----------------------------------------------------|
A |----------------------------------------------------|
F |----------------------------------------------------|
C |----------------------------------------------------|
G |--0M-4--3--0M-2--0M-2--3--0M-4--3--0M-2--0M-2--3----|
C |--0M-4--3--0M-2--0M-2--3--0M-4--3--0M-2--0M-2--3----|

                                                     
----------------------------------------------------|
----------------------------------------------------|
----------------------------------------------------|
----------------------------------------------------|
--0M-4--3--0M-2--0M-2--3--0M-4--3--0M-2--0M-2--3----|
--0M-4--3--0M-2--0M-2--3--0M-4--3--0M-2--0M-2--3----|

                                                     
----------------------------------------------------|
----------------------------------------------------|
----------------------------------------------------|
----------------------------------------------------|
--0M-4--3--0M-2--0M-2--3--0M-4--3--0M-2--0M-2--3----|
--0M-4--3--0M-2--0M-2--3--0M-4--3--0M-2--0M-2--3----|

                                                     
----------------------------------------------------|
----------------------------------------------------|
----------------------------------------------------|
----------------------------------------------------|
--0M-4--3--0M-2--0M-2--3--0M-4--3--0M-2--0M-2--3----|
--0M-4--3--0M-2--0M-2--3--0M-4--3--0M-2--0M-2--3----|

                                                     
----------------------------------------------------|
----------------------------------------------------|
----------------------------------------------------|
----------------------------------------------------|
--0M-4--3--0M-2--0M-2--3--0M-4--3--0M-2--0M-2--3----|
--0M-4--3--0M-2--0M-2--3--0M-4--3--0M-2--0M-2--3----|

                                                     
----------------------------------------------------|
----------------------------------------------------|
----------------------------------------------------|
----------------------------------------------------|
--0M-4--3--0M-2--0M-2--3--0M-4--3--0M-2--0M-2--3----|
--0M-4--3--0M-2--0M-2--3--0M-4--3--0M-2--0M-2--3----|

                                                     
----------------------------------------------------|
----------------------------------------------------|
----------------------------------------------------|
----------------------------------------------------|
--0M-4--3--0M-2--0M-2--3--0M-4--3--0M-2--0M-2--3----|
--0M-4--3--0M-2--0M-2--3--0M-4--3--0M-2--0M-2--3----|

                                                     
----------------------------------------------------|
----------------------------------------------------|
----------------------------------------------------|
----------------------------------------------------|
--0M-4--3--0M-2--0M-2--3----------------------------|
--0M-4--3--0M-2--0M-2--3----------------------------|

                                                     
----------------------------------------------------|
----------------------------------------------------|
----------------------------------------------------|
----------------------------------------------------|
--0M-4--3--0M-2--0M-2--3--0M-4--3--0M-2--0M-2--3----|
--0M-4--3--0M-2--0M-2--3--0M-4--3--0M-2--0M-2--3----|

                                                     
----------------------------------------------------|
----------------------------------------------------|
----------------------------------------------------|
----------------------------------------------------|
--0M-4--3--0M-2--0M-2--3--0M-4--3--0M-2--0M-2--3----|
--0M-4--3--0M-2--0M-2--3--0M-4--3--0M-2--0M-2--3----|

                                                     
----------------------------------------------------|
----------------------------------------------------|
----------------------------------------------------|
----------------------------------------------------|
--0M-4--3--0M-2--0M-2--3--0M-4--3--0M-2--0M-2--3----|
--0M-4--3--0M-2--0M-2--3--0M-4--3--0M-2--0M-2--3----|

                                                     
----------------------------------------------------|
----------------------------------------------------|
----------------------------------------------------|
----------------------------------------------------|
--0M-4--3--0M-2--0M-2--3--0M-4--3--0M---------------|
--0M-4--3--0M-2--0M-2--3--0M-4--3--0M-3~------------|

                                                     
----------------------------------------------------|
----------------------------------------------------|
----------------------------------------------------|
----------------------------------------------------|
--0M-4--3--0M-2--0M-2--3--0M-4--3--0M-2--0M-2--3----|
--0M-4--3--0M-2--0M-2--3--0M-4--3--0M-2--0M-2--3----|

                                                     
----------------------------------------------------|
----------------------------------------------------|
----------------------------------------------------|
----------------------------------------------------|
--0M-4--3--0M-2--0M-2--3--0M-4--3--0M-2--0M-2--3----|
--0M-4--3--0M-2--0M-2--3--0M-4--3--0M-2--0M-2--3----|

                                                     
----------------------------------------------------|
----------------------------------------------------|
----------------------------------------------------|
----------------------------------------------------|
--0M-4--3--0M-2--0M-2--3--0M-4--3--0M-2--0M-2--3----|
--0M-4--3--0M-2--0M-2--3--0M-4--3--0M-2--0M-2--3----|

                                                     
----------------------------------------------------|
----------------------------------------------------|
----------------------------------------------------|
----------------------------------------------------|
--0M-4--3--0M-2--0M-2--3--0M-4--3--0M-2--0M-2--3----|
--0M-4--3--0M-2--0M-2--3--0M-4--3--0M-2--0M-2--3----|

                                                     
----------------------------------------------------|
----------------------------------------------------|
----------------------------------------------------|
----------------------------------------------------|
----------------------------------------------------|
--2--0--0M-3--0--0M-4--0--0M-3--0--0M-2--0--3--0----|

                                                     
----------------------------------------------------|
----------------------------------------------------|
----------------------------------------------------|
----------------------------------------------------|
--------------------------------------2h-3h-2-------|
--2--0--0M-3--0--0M-4--0--0M-3--0--0M----------0----|

                                                     
----------------------------------------------------|
----------------------------------------------------|
----------------------------------------------------|
----------------------------------------------------|
--2--0--0M-3--0--0M-4--0--0M-2--0--0M-2--0--3--0----|
--2--0--0M-3--0--0M-4--0--0M-2--0--0M-2--0--3--0----|

                                                     
----------------------------------------------------|
----------------------------------------------------|
----------------------------------------------------|
----------------------------------------------------|
--2--0--0M-3--0--0M-4--0--0M-3--0--0M-1h-3----------|
--2--0--0M-3--0--0M-4--0--0M-3--0--0M-------3--0----|

                                                     
----------------------------------------------------|
----------------------------------------------------|
----------------------------------------------------|
----------------------------------------------------|
--2--0--0M-3--0--0M-4--0--0M-2--0--0M-2--0--3--0----|
--2--0--0M-3--0--0M-4--0--0M-2--0--0M-2--0--3--0----|

                                                     
----------------------------------------------------|
----------------------------------------------------|
----------------------------------------------------|
----------------------------------------------------|
--2--0--0M-3--0--0M-4--0--0M-3--0--0M-1h-3----------|
--2--0--0M-3--0--0M-4--0--0M-3--0--0M-------3--0----|

                                                     
----------------------------------------------------|
----------------------------------------------------|
----------------------------------------------------|
----------------------------------------------------|
--0M-0M-0M-0M-0M-0M-------0M-0M-0M-0M-0M-0M---------|
--0M-0M-0M-0M-0M-0M-3b----0M-0M-0M-0M-0M-0M-2b------|

                                                     
----------------------------------------------------|
----------------------------------------------------|
----------------------------------------------------|
----------------------------------------------------|
--0M-0M-0M-0M-0M-0M-------0M-0M-0M-0M-0M-0M---------|
--0M-0M-0M-0M-0M-0M-3b----0M-0M-0M-0M-0M-0M-2b------|

                                                     
----------------------------------------------------|
----------------------------------------------------|
----------------------------------------------------|
----------------------------------------------------|
--2--0--0M-3--0--0M-4--0--0M-3--0--0M-1h-3----------|
--2--0--0M-3--0--0M-4--0--0M-3--0--0M-------3--0----|

                                                     
----------------------------------------------------|
----------------------------------------------------|
----------------------------------------------------|
----------------------------------------------------|
----------------------------------------------------|
--0--0--0--13~---0--------0--0--0--13~---0----------|

                                                       =  =     
----------------------------------------------------|----------|
----------------------------------------------------|----------|
----------------------------------------------------|----------|
----------------------------------------------------|--5--8----|
----------------------------------------------------|--3--6----|
--0--0--0--13~---0--------0--0--0--13~---0----------|----------|

                                                       =  =     
----------------------------------------------------|----------|
----------------------------------------------------|----------|
----------------------------------------------------|----------|
----------------------------------------------------|--8--7----|
----------------------------------------------------|--8--7----|
--0--0--0--13~---0--------0--0--0--13~---0----------|--8--7----|

                                                       =  =     
----------------------------------------------------|----------|
----------------------------------------------------|----------|
----------------------------------------------------|----------|
----------------------------------------------------|--5--8----|
----------------------------------------------------|--3--6----|
--0--0--0--13~---0--------0--0--0--13~---0----------|----------|

                                                     
----------------------------------------------------|
----------------------------------------------------|
----------------------------------------------------|
----------------------------------------------------|
----------------------------------------------------|
--0--0--0--13~---0--------0--0--0--13~---0----------|

  =                          
----------------------------|
----------------------------|
----------------------------|
--8-----------7-------------|
--8-----------7-------------|
--8-----------7-------------|

                                                     
----------------------------------------------------|
----------------------------------------------------|
----------------------------------------------------|
----------------------------------------------------|
--2--0--0M-3--0--0M-4--0--0M-2--0--0M-2--0--3--0----|
--2--0--0M-3--0--0M-4--0--0M-2--0--0M-2--0--3--0----|

                                                     
----------------------------------------------------|
----------------------------------------------------|
----------------------------------------------------|
----------------------------------------------------|
--2--0--0M-3--0--0M-4--0--0M-3--0--0M-1h-3----------|
--2--0--0M-3--0--0M-4--0--0M-3--0--0M-------3--0----|

                                                     
----------------------------------------------------|
----------------------------------------------------|
----------------------------------------------------|
----------------------------------------------------|
--2--0--0M-3--0--0M-4--0--0M-2--0--0M-2--0--3--0----|
--2--0--0M-3--0--0M-4--0--0M-2--0--0M-2--0--3--0----|

                                                     
----------------------------------------------------|
----------------------------------------------------|
----------------------------------------------------|
----------------------------------------------------|
--2--0--0M-3--0--0M-4--0--0M-3--0--0M-1h-3----------|
--2--0--0M-3--0--0M-4--0--0M-3--0--0M-------3--0----|

                                                     
----------------------------------------------------|
----------------------------------------------------|
----------------------------------------------------|
----------------------------------------------------|
--2--0--0M-3--0--0M-4--0--0M-2--0--0M-2--0--3--0----|
--2--0--0M-3--0--0M-4--0--0M-2--0--0M-2--0--3--0----|

                                                     
----------------------------------------------------|
----------------------------------------------------|
----------------------------------------------------|
----------------------------------------------------|
--2--0--0M-3--0--0M-4--0--0M-3--0--0M-1h-3----------|
--2--0--0M-3--0--0M-4--0--0M-3--0--0M-------3--0----|

                                                     
----------------------------------------------------|
----------------------------------------------------|
----------------------------------------------------|
----------------------------------------------------|
--2--0--0M-3--0--0M-4--0--0M-2--0--0M-2--0--3--0----|
--2--0--0M-3--0--0M-4--0--0M-2--0--0M-2--0--3--0----|

                                                     
----------------------------------------------------|
----------------------------------------------------|
----------------------------------------------------|
----------------------------------------------------|
--2--0--0M-3--0--0M-4--0--0M-3--0--0M-1h-3----------|
--2--0--0M-3--0--0M-4--0--0M-3--0--0M-------3--0----|

                                                     
----------------------------------------------------|
----------------------------------------------------|
----------------------------------------------------|
--0M-0M-0M----0M-0M----0M-0M----0M-0M----0M-0M------|
--0M-0M-0M----0M-0M----0M-0M----0M-0M----0M-0M------|
--0M-0M-0M----0M-0M----0M-0M----0M-0M----0M-0M------|

                                                     
----------------------------------------------------|
----------------------------------------------------|
----------------------------------------------------|
--0M-0M-0M----0M-0M----0M-0M----0M-0M----0M-0M------|
--0M-0M-0M----0M-0M----0M-0M----0M-0M----0M-0M------|
--0M-0M-0M----0M-0M----0M-0M----0M-0M----0M-0M------|

                                                     
----------------------------------------------------|
----------------------------------------------------|
----------------------------------------------------|
--0M-0M-0M----0M-0M----0M-0M----0M-0M----0M-0M------|
--0M-0M-0M----0M-0M----0M-0M----0M-0M----0M-0M------|
--0M-0M-0M----0M-0M----0M-0M----0M-0M----0M-0M------|

                                                     
----------------------------------------------------|
----------------------------------------------------|
----------------------------------------------------|
--0M-0M-0M----0M-0M----0M-0M----0M-0M----0M-0M------|
--0M-0M-0M----0M-0M----0M-0M----0M-0M----0M-0M------|
--0M-0M-0M----0M-0M----0M-0M----0M-0M----0M-0M------|

                                                     
----------------------------------------------------|
----------------------------------------------------|
----------------------------------------------------|
--0M-0M-0M----0M-0M----0M-0M----0M-0M----0M-0M------|
--0M-0M-0M----0M-0M----0M-0M----0M-0M----0M-0M------|
--0M-0M-0M----0M-0M----0M-0M----0M-0M----0M-0M------|

                                                     
----------------------------------------------------|
----------------------------------------------------|
----------------------------------------------------|
--0M-0M-0M----0M-0M----0M-0M----0M-0M----0M-0M------|
--0M-0M-0M----0M-0M----0M-0M----0M-0M----0M-0M------|
--0M-0M-0M----0M-0M----0M-0M----0M-0M----0M-0M------|

                                                     
----------------------------------------------------|
----------------------------------------------------|
----------------------------------------------------|
--0M-0M-0M----0M-0M----0M-0M----0M-0M----0M-0M------|
--0M-0M-0M----0M-0M----0M-0M----0M-0M----0M-0M------|
--0M-0M-0M----0M-0M----0M-0M----0M-0M----0M-0M------|

                                                                                
--------------------------------------------------------------------------------
--------------------------------------------------------------------------------
--------------------------------------------------------------------------------
--0M----------------------------------------------------------------------------
--0M----------------------------------------------------------------------------
--0M----------------------------------0M-0M-0M----0-----------------0-----------

                                                                          
--------------------|----------------------------------------------------|
--------------------|----------------------------------------------------|
--------------------|----------------------------------------------------|
--------------------|--0M-0M-0M----0M-0M----0M-0M----0M-0M----0M-0M------|
--------------------|--0M-0M-0M----0M-0M----0M-0M----0M-0M----0M-0M------|
------0-------------|--0M-0M-0M----0M-0M----0M-0M----0M-0M----0M-0M------|

                                                     
----------------------------------------------------|
----------------------------------------------------|
----------------------------------------------------|
--0M-0M-0M----0M-0M----0M-0M----0M-0M----0M-0M------|
--0M-0M-0M----0M-0M----0M-0M----0M-0M----0M-0M------|
--0M-0M-0M----0M-0M----0M-0M----0M-0M----0M-0M------|

                                                     
----------------------------------------------------|
----------------------------------------------------|
----------------------------------------------------|
--0M-0M-0M----0M-0M----0M-0M----0M-0M----0M-0M------|
--0M-0M-0M----0M-0M----0M-0M----0M-0M----0M-0M------|
--0M-0M-0M----0M-0M----0M-0M----0M-0M----0M-0M------|

            =  =                                     
----------------------------------------------------|
----------------------------------------------------|
----------------------------------------------------|
----------------------------------------------------|
----------------------------------------------------|
--0--0--0--13~---0--------0--0--0--13~---0----------|

                       =  =                                     
----------------------------------------------------|----------|
----------------------------------------------------|----------|
----------------------------------------------------|----------|
----------------------------------------------------|--5--8----|
----------------------------------------------------|--3--6----|
--0--0--0--13~---0--------0--0--0--13~---0----------|----------|

                       =  =                                     
----------------------------------------------------|----------|
----------------------------------------------------|----------|
----------------------------------------------------|----------|
----------------------------------------------------|--8--7----|
----------------------------------------------------|--8--7----|
--0--0--0--13~---0--------0--0--0--13~---0----------|--8--7----|

                       =  =
----------------------------------------------------|----------|
----------------------------------------------------|----------|
----------------------------------------------------|----------|
----------------------------------------------------|--5--8----|
----------------------------------------------------|--3--6----|
--0--0--0--13~---0--------0--0--0--13~---0----------|----------|


----------------------------------------------------|----------|
----------------------------------------------------|----------|
----------------------------------------------------|----------|
----------------------------------------------------|--8--7----|
----------------------------------------------------|--8--7----|
--0--0--0--13~---0--------0--0--0--13~---0----------|--8--7----|


----------------------------------------------------|
----------------------------------------------------|
----------------------------------------------------|
----------------------------------------------------|
--0M-4--3--0M-2--0M-2--3--0M-4--3--0M-2--0M-2--3----|
--0M-4--3--0M-2--0M-2--3--0M-4--3--0M-2--0M-2--3----|


----------------------------------------------------|
----------------------------------------------------|
----------------------------------------------------|
----------------------------------------------------|
--0M-4--3--0M-2--0M-2--3--0M-4--3--0M-2--0M-2--3----|
--0M-4--3--0M-2--0M-2--3--0M-4--3--0M-2--0M-2--3----|


----------------------------------------------------|
----------------------------------------------------|
----------------------------------------------------|
----------------------------------------------------|
--0M-4--3--0M-2--0M-2--3--0M-4--3--0M-2--0M-2--3----|
--0M-4--3--0M-2--0M-2--3--0M-4--3--0M-2--0M-2--3----|


----------------------------------------------------|
----------------------------------------------------|
----------------------------------------------------|
----------------------------------------------------|
--0M-4--3--0M-2--0M-2--3--0M-4--3--0M-2--0M-2--3----|
--0M-4--3--0M-2--0M-2--3--0M-4--3--0M-2--0M-2--3----|


----------------------------------------------------|
----------------------------------------------------|
----------------------------------------------------|
----------------------------------------------------|
--0M-4--3--0M-2--0M-2--3--0M-4--3--0M-2--0M-2--3----|
--0M-4--3--0M-2--0M-2--3--0M-4--3--0M-2--0M-2--3----|


----------------------------------------------------|
----------------------------------------------------|
----------------------------------------------------|
----------------------------------------------------|
--0M-4--3--0M-2--0M-2--3--0M-4--3--0M-2--0M-2--3----|
--0M-4--3--0M-2--0M-2--3--0M-4--3--0M-2--0M-2--3----|


----------------------------------------------------|
----------------------------------------------------|
----------------------------------------------------|
----------------------------------------------------|
--0M-4--3--0M-2--0M-2--3--0M-4--3--0M-2--0M-2--3----|
--0M-4--3--0M-2--0M-2--3--0M-4--3--0M-2--0M-2--3----|


----------------------------------------------------|
----------------------------------------------------|
----------------------------------------------------|
----------------------------------------------------|
--0M-4--3--0M-2--0M-2--3--0M-4--3--0M-2--0M-2--3----|
--0M-4--3--0M-2--0M-2--3--0M-4--3--0M-2--0M-2--3----|


----------------------------------------------------|
----------------------------------------------------|
----------------------------------------------------|
----------------------------------------------------|
--0M-4--3--0M-2--0M-2--3--0M-4--3--0M-2--0M-2--3----|
--0M-4--3--0M-2--0M-2--3--0M-4--3--0M-2--0M-2--3----|


----------------------------------------------------|
----------------------------------------------------|
----------------------------------------------------|
----------------------------------------------------|
--0M-4--3--0M-2--0M-2--3--0M-4--3--0M-2--0M-2--3----|
--0M-4--3--0M-2--0M-2--3--0M-4--3--0M-2--0M-2--3----|


----------------------------------------------------|
----------------------------------------------------|
----------------------------------------------------|
----------------------------------------------------|
--0M-4--3--0M-2--0M-2--3--0M-4--3--0M-2--0M-2--3----|
--0M-4--3--0M-2--0M-2--3--0M-4--3--0M-2--0M-2--3----|


----------------------------------------------------|
----------------------------------------------------|
----------------------------------------------------|
----------------------------------------------------|
--0M-4--3--0M-2--0M-2--3--0M-4--3--0M-2--0M-2--3----|
--0M-4--3--0M-2--0M-2--3--0M-4--3--0M-2--0M-2--3----|


----------------------------------------------------|
----------------------------------------------------|
----------------------------------------------------|
----------------------------------------------------|
--0M-4--3--0M-2--0M-2--3--0M-4--3--0M-2--0M-2--3----|
--0M-4--3--0M-2--0M-2--3--0M-4--3--0M-2--0M-2--3----|


----------------------------------------------------|
----------------------------------------------------|
----------------------------------------------------|
----------------------------------------------------|
--0M-4--3--0M-2--0M-2--3--0M-4--3--0M-2--0M-2--3----|
--0M-4--3--0M-2--0M-2--3--0M-4--3--0M-2--0M-2--3----|


----------------------------------------------------|
----------------------------------------------------|
----------------------------------------------------|
----------------------------------------------------|
--0M-4--3--0M-2--0M-2--3--0M-4--3--0M-2--0M-2--3----|
--0M-4--3--0M-2--0M-2--3--0M-4--3--0M-2--0M-2--3----|


----------------------------------------------------|
----------------------------------------------------|
----------------------------------------------------|
----------------------------------------------------|
--0M-4--3--0M-2--0M-2--3--0M-4--3--0M-2--0M-2--3----|
--0M-4--3--0M-2--0M-2--3--0M-4--3--0M-2--0M-2--3----|


----------------------------------------------------|
----------------------------------------------------|
----------------------------------------------------|
----------------------------------------------------|
--0M-4--3--0M-2--0M-2--3--0M-4--3--0M-2--0M-2--3----|
--0M-4--3--0M-2--0M-2--3--0M-4--3--0M-2--0M-2--3----|


----------------------------------------------------|
----------------------------------------------------|
----------------------------------------------------|
----------------------------------------------------|
--0M-4--3--0M-2--0M-2--3--0M-4--3--0M-2--0M-2--3----|
--0M-4--3--0M-2--0M-2--3--0M-4--3--0M-2--0M-2--3----|


----------------------------------------------------|
----------------------------------------------------|
----------------------------------------------------|
----------------------------------------------------|
--0M-4--3--0M-2--0M-2--3--0M-4--3--0M-2--0M-2--3----|
--0M-4--3--0M-2--0M-2--3--0M-4--3--0M-2--0M-2--3----|


----------------------------------------------------|
----------------------------------------------------|
----------------------------------------------------|
----------------------------------------------------|
--0M-4--3--0M-2--0M-2--3--0M-4--3--0M-2--0M-2--3----|
--0M-4--3--0M-2--0M-2--3--0M-4--3--0M-2--0M-2--3----|


----------------------------------------------------|
----------------------------------------------------|
----------------------------------------------------|
----------------------------------------------------|
--0M-4--3--0M-2--0M-2--3--0M-4--3--0M-2--0M-2--3----|
--0M-4--3--0M-2--0M-2--3--0M-4--3--0M-2--0M-2--3----|


----------------------------------------------------|
----------------------------------------------------|
----------------------------------------------------|
----------------------------------------------------|
--0M-4--3--0M-2--0M-2--3--0M-4--3--0M-2--0M-2--3----|
--0M-4--3--0M-2--0M-2--3--0M-4--3--0M-2--0M-2--3----|


----------------------------------------------------|
----------------------------------------------------|
----------------------------------------------------|
----------------------------------------------------|
--0M-4--3--0M-2--0M-2--3--0M-4--3--0M-2--0M-2--3----|
--0M-4--3--0M-2--0M-2--3--0M-4--3--0M-2--0M-2--3----|


----------------------------------------------------|
----------------------------------------------------|
----------------------------------------------------|
----------------------------------------------------|
--0M-4--3--0M-2--0M-2--3--0M-4--3--0M-2--0M-2--3----|
--0M-4--3--0M-2--0M-2--3--0M-4--3--0M-2--0M-2--3----|


----------------------------------------------------|
----------------------------------------------------|
----------------------------------------------------|
----------------------------------------------------|
--0--------4--------0-----------2-----3-----2-------|
--0--------4--------0-----------2-----3-----2-------|


----------------------------------------------------|
----------------------------------------------------|
----------------------------------------------------|
----------------------------------------------------|
--0--------4--------0-----------2-----3-----2-------|
--0--------4--------0-----------2-----3-----2-------|


----------------------------------------------------|
----------------------------------------------------|
----------------------------------------------------|
----------------------------------------------------|
--0--------4--------0-----------2-----3-----2-------|
--0--------4--------0-----------2-----3-----2-------|


----------------------------------------------------|-------|-------||
----------------------------------------------------|-------|-------||
----------------------------------------------------|-------|-------||
----------------------------------------------------|-------|-------||
--0M-0M-0M-0M-------0M-0M-0M-0M---------------------|-------|-------||
--0M-0M-0M-0M-------0M-0M-0M-0M---------------------|-------|-------||




GUITAR TWO




D |-------|-------|-------|-------|-------|-------|-------|----------|
A |-------|-------|-------|-------|-------|-------|-------|----------|
F |-------|-------|-------|-------|-------|-------|-------|----------|
C |-------|-------|-------|-------|--0L---|--0L---|--0L---|--0-------|
G |-------|-------|-------|-------|--0L---|--0L---|--0L---|--0-------|
C |-------|-------|-------|-------|--0L---|--0L---|--0L---|--0-------|

                                                     
----------------------------------------------------|
----------------------------------------------------|
----------------------------------------------------|
----------------------------------------------------|
--0M-4--3--0M-2--0M-2--3--0M-4--3--0M-2--0M-2--3----|
--0M-4--3--0M-2--0M-2--3--0M-4--3--0M-2--0M-2--3----|

                                                     
----------------------------------------------------|
----------------------------------------------------|
----------------------------------------------------|
----------------------------------------------------|
--0M-4--3--0M-2--0M-2--3--0M-4--3--0M-2--0M-2--3----|
--0M-4--3--0M-2--0M-2--3--0M-4--3--0M-2--0M-2--3----|

                                                     
----------------------------------------------------|
----------------------------------------------------|
----------------------------------------------------|
----------------------------------------------------|
--0M-4--3--0M-2--0M-2--3--0M-4--3--0M-2--0M-2--3----|
--0M-4--3--0M-2--0M-2--3--0M-4--3--0M-2--0M-2--3----|

                                                     
----------------------------------------------------|
----------------------------------------------------|
----------------------------------------------------|
----------------------------------------------------|
--0M-4--3--0M-2--0M-2--3--0M-4--3--0M---------------|
--0M-4--3--0M-2--0M-2--3--0M-4--3--0M---------------|

                                                     
----------------------------------------------------|
----------------------------------------------------|
----------------------------------------------------|
----------------------------------------------------|
--0M-4--3--0M-2--0M-2--3--0M-4--3--0M-2--0M-2--3----|
--0M-4--3--0M-2--0M-2--3--0M-4--3--0M-2--0M-2--3----|

                                                     
----------------------------------------------------|
----------------------------------------------------|
----------------------------------------------------|
----------------------------------------------------|
--0M-4--3--0M-2--0M-2--3--0M-4--3--0M-2--0M-2--3----|
--0M-4--3--0M-2--0M-2--3--0M-4--3--0M-2--0M-2--3----|

                                                     
----------------------------------------------------|
----------------------------------------------------|
----------------------------------------------------|
----------------------------------------------------|
--0M-4--3--0M-2--0M-2--3--0M-4--3--0M-2--0M-2--3----|
--0M-4--3--0M-2--0M-2--3--0M-4--3--0M-2--0M-2--3----|

                                                     
----------------------------------------------------|
----------------------------------------------------|
----------------------------------------------------|
----------------------------------------------------|
--0M-4--3--0M-2--0M-2--3--0M-4--3--0M-2--0M-2--3----|
--0M-4--3--0M-2--0M-2--3--0M-4--3--0M-2--0M-2--3----|

                                                             
----------------------------------------------------|-------|
----------------------------------------------------|-------|
----------------------------------------------------|-------|
----------------------------------------------------|--0----|
--0-----------------------------0-----0-----0-------|--0----|
--0-----------------------------0-----0-----0-------|--0----|

                                                     
----------------------------------------------------|
----------------------------------------------------|
----------------------------------------------------|
----------------------------------------------------|
--2--0--0M-3--0--0M-4--0--0M-2--0--0M-2--0--3--0----|
--2--0--0M-3--0--0M-4--0--0M-2--0--0M-2--0--3--0----|

                                                     
----------------------------------------------------|
----------------------------------------------------|
----------------------------------------------------|
----------------------------------------------------|
--2--0--0M-3--0--0M-4--0--0M-3--0--0M-1h-3----------|
--2--0--0M-3--0--0M-4--0--0M-3--0--0M-------3--0----|

                                                     
----------------------------------------------------|
----------------------------------------------------|
----------------------------------------------------|
----------------------------------------------------|
--2--0--0M-3--0--0M-4--0--0M-2--0--0M-2--0--3--0----|
--2--0--0M-3--0--0M-4--0--0M-2--0--0M-2--0--3--0----|

                                                     
----------------------------------------------------|
----------------------------------------------------|
----------------------------------------------------|
----------------------------------------------------|
--2--0--0M-3--0--0M-4--0--0M-3--0--0M-1h-3----------|
--2--0--0M-3--0--0M-4--0--0M-3--0--0M-------3--0----|

                                                     
----------------------------------------------------|
----------------------------------------------------|
----------------------------------------------------|
----------------------------------------------------|
--0M-0M-0M-0M-0M-0M-------0M-0M-0M-0M-0M-0M---------|
--0M-0M-0M-0M-0M-0M-------0M-0M-0M-0M-0M-0M---------|

                                                     
----------------------------------------------------|
----------------------------------------------------|
----------------------------------------------------|
----------------------------------------------------|
--0M-0M-0M-0M-0M-0M-------0M-0M-0M-0M-0M-0M---------|
--0M-0M-0M-0M-0M-0M-------0M-0M-0M-0M-0M-0M---------|

                                                             
----------------------------------------------------|-------|
----------------------------------------------------|-------|
----------------------------------------------------|-------|
----------------------------------------------------|-------|
--2--0--0M-3--0--0M-4--0--0M-3--0--0M-1h-3----------|-------|
--2--0--0M-3--0--0M-4--0--0M-3--0--0M-------3--0----|-------|

                                                                
----------------------------------------------------|----------|
----------------------------------------------------|----------|
----------------------------------------------------|--5--8----|
----------------------------------------------------|--x--x----|
----------------------------------------------------|--3--6----|
--0--0--0--13~---0--------0--0--0--13~---0----------|----------|

                                                 =  =           
----------------------------------------------------|----------|
----------------------------------------------------|----------|
----------------------------------------------------|--3--2----|
----------------------------------------------------|--x--x----|
----------------------------------------------------|--1--0----|
--0--0--0--13~---0--------0--0--0--13~---0----------|----------|

                                                                
----------------------------------------------------|----------|
----------------------------------------------------|----------|
----------------------------------------------------|--5--8----|
----------------------------------------------------|--x--x----|
----------------------------------------------------|--3--6----|
--0--0--0--13~---0--------0--0--0--13~---0----------|----------|

                                           =                    
----------------------------------------------------|----------|
----------------------------------------------------|----------|
----------------------------------------------------|--3-------|
----------------------------------------------------|--x-------|
----------------------------------------------------|--1-------|
--0--0--0--13~---0--------0--0--0--13~---0----------|-----3b---|

                                                     
----------------------------------------------------|
----------------------------------------------------|
----------------------------------------------------|
----------------------------------------------------|
--2--0--0M-3--0--0M-4--0--0M-2--0--0M-2--0--3--0----|
--2--0--0M-3--0--0M-4--0--0M-2--0--0M-2--0--3--0----|

                                                     
----------------------------------------------------|
----------------------------------------------------|
----------------------------------------------------|
----------------------------------------------------|
--2--0--0M-3--0--0M-4--0--0M-3--0--0M-1h-3----------|
--2--0--0M-3--0--0M-4--0--0M-3--0--0M-------3--0----|

                                                     
----------------------------------------------------|
----------------------------------------------------|
----------------------------------------------------|
----------------------------------------------------|
--2--0--0M-3--0--0M-4--0--0M-2--0--0M-2--0--3--0----|
--2--0--0M-3--0--0M-4--0--0M-2--0--0M-2--0--3--0----|

                                                     
----------------------------------------------------|
----------------------------------------------------|
----------------------------------------------------|
----------------------------------------------------|
--2--0--0M-3--0--0M-4--0--0M-3--0--0M-1h-3----------|
--2--0--0M-3--0--0M-4--0--0M-3--0--0M-------3--0----|

                                                     
----------------------------------------------------|
----------------------------------------------------|
----------------------------------------------------|
----------------------------------------------------|
--2--0--0M-3--0--0M-4--0--0M-2--0--0M-2--0--3--0----|
--2--0--0M-3--0--0M-4--0--0M-2--0--0M-2--0--3--0----|

                                                     
----------------------------------------------------|
----------------------------------------------------|
----------------------------------------------------|
----------------------------------------------------|
--2--0--0M-3--0--0M-4--0--0M-3--0--0M-1h-3----------|
--2--0--0M-3--0--0M-4--0--0M-3--0--0M-------3--0----|

                                                     
----------------------------------------------------|
----------------------------------------------------|
----------------------------------------------------|
----------------------------------------------------|
--2--0--0M-3--0--0M-4--0--0M-2--0--0M-2--0--3--0----|
--2--0--0M-3--0--0M-4--0--0M-2--0--0M-2--0--3--0----|

                                                     
----------------------------------------------------|
----------------------------------------------------|
----------------------------------------------------|
----------------------------------------------------|
--2--0--0M-3--0--0M-4--0--0M-3--0--0M-1h-3----------|
--2--0--0M-3--0--0M-4--0--0M-3--0--0M-------3--0----|

                                                     
----------------------------------------------------|
----------------------------------------------------|
----------------------------------------------------|
--0M-0M-0M----0M-0M----0M-0M----0M-0M----0M-0M------|
--0M-0M-0M----0M-0M----0M-0M----0M-0M----0M-0M------|
--0M-0M-0M----0M-0M----0M-0M----0M-0M----0M-0M------|

                                                     
----------------------------------------------------|
----------------------------------------------------|
----------------------------------------------------|
--0M-0M-0M----0M-0M----0M-0M----0M-0M----0M-0M------|
--0M-0M-0M----0M-0M----0M-0M----0M-0M----0M-0M------|
--0M-0M-0M----0M-0M----0M-0M----0M-0M----0M-0M------|

                                                          
----------------------------------------------------|----|
----------------------------------------------------|----|
----------------------------------------------------|----|
--0M-0M-0M----0M-0M----0M-0M----0M-0M----0M-0M------|----|
--0M-0M-0M----0M-0M----0M-0M----0M-0M----0M-0M------|----|
--0M-0M-0M----0M-0M----0M-0M----0M-0M----0M-0M------|----|

                                                     
----------------------------------------------------|
----------------------------------------------------|
----------------------------------------------------|
--0M-0M-0M----0M-0M----0M-0M----0M-0M----0M-0M------|
--0M-0M-0M----0M-0M----0M-0M----0M-0M----0M-0M------|
--0M-0M-0M----0M-0M----0M-0M----0M-0M----0M-0M------|

                                                     
----------------------------------------------------|
----------------------------------------------------|
----------------------------------------------------|
--0M-0M-0M----0M-0M----0M-0M----0M-0M----0M-0M------|
--0M-0M-0M----0M-0M----0M-0M----0M-0M----0M-0M------|
--0M-0M-0M----0M-0M----0M-0M----0M-0M----0M-0M------|

                                                     
----------------------------------------------------|
----------------------------------------------------|
----------------------------------------------------|
--0M-0M-0M----0M-0M----0M-0M----0M-0M----0M-0M------|
--0M-0M-0M----0M-0M----0M-0M----0M-0M----0M-0M------|
--0M-0M-0M----0M-0M----0M-0M----0M-0M----0M-0M------|

                                                                                
--------------------------------------------------------------------------------
--------------------------------------------------------------------------------
--------------------------------------------------------------------------------
--0M----------------------------------------------------------------------------
--0M----------------------------------------------------------------------------
--0M----------------------------------0M-0M-0M----0-----------------0-----------

                                                                          
--------------------|----------------------------------------------------|
--------------------|----------------------------------------------------|
--------------------|----------------------------------------------------|
--------------------|--0M-0M-0M----0M-0M----0M-0M----0M-0M----0M-0M------|
--------------------|--0M-0M-0M----0M-0M----0M-0M----0M-0M----0M-0M------|
------0-------------|--0M-0M-0M----0M-0M----0M-0M----0M-0M----0M-0M------|

                                                     
----------------------------------------------------|
----------------------------------------------------|
----------------------------------------------------|
--0M-0M-0M----0M-0M----0M-0M----0M-0M----0M-0M------|
--0M-0M-0M----0M-0M----0M-0M----0M-0M----0M-0M------|
--0M-0M-0M----0M-0M----0M-0M----0M-0M----0M-0M------|

                                                     
----------------------------------------------------|
----------------------------------------------------|
----------------------------------------------------|
--0M-0M-0M----0M-0M----0M-0M----0M-0M----0M-0M------|
--0M-0M-0M----0M-0M----0M-0M----0M-0M----0M-0M------|
--0M-0M-0M----0M-0M----0M-0M----0M-0M----0M-0M------|

          =  =                                       
----------------------------------------------------|
----------------------------------------------------|
----------------------------------------------------|
--0M------------------------------------------------|
--0M------------------------------------------------|
--0M------------------------------------------------|

                                                                
----------------------------------------------------|----------|
----------------------------------------------------|----------|
----------------------------------------------------|--5--8----|
----------------------------------------------------|--x--x----|
----------------------------------------------------|--3--6----|
--0--0--0--13~---0--------0--0--0--13~---0----------|----------|

               =  =
----------------------------------------------------|----------|
----------------------------------------------------|----------|
----------------------------------------------------|--3--2----|
----------------------------------------------------|--x--x----|
----------------------------------------------------|--1--0----|
--0--0--0--13~---0--------0--0--0--13~---0----------|----------|


----------------------------------------------------|----------|
----------------------------------------------------|----------|
----------------------------------------------------|--5--8----|
----------------------------------------------------|--x--x----|
----------------------------------------------------|--3--6----|
--0--0--0--13~---0--------0--0--0--13~---0----------|----------|


----------------------------------------------------|----------|-------|-------|
----------------------------------------------------|----------|-------|-------|
----------------------------------------------------|--3--2----|-------|-------|
----------------------------------------------------|--x--x----|--0L---|--0L---|
----------------------------------------------------|--1--0----|--0L---|--0L---|
--0--0--0--13~---0--------0--0--0--13~---0----------|----------|--0L---|--0L---|


-------|-------|-------|-------|-------|----------|-------|-------|-------|
-------|-------|-------|-------|-------|----------|-------|-------|-------|
-------|-------|-------|-------|-------|----------|-------|-------|-------|
--0L---|--0L---|--0L---|--0L---|--0L---|--0L-0----|--0L---|--0L---|--0L---|
--0L---|--0L---|--0L---|--0L---|--0L---|--0L-0----|--0L---|--0L---|--0L---|
--0L---|--0L---|--0L---|--0L---|--0L---|--0L-0----|--0L---|--0L---|--0L---|


-------|-------|-------|-------|----------|
-------|-------|-------|-------|----------|
-------|-------|-------|-------|----------|
--0L---|--0L---|--0L---|--0L---|--0-------|
--0L---|--0L---|--0L---|--0L---|--0-------|
--0L---|--0L---|--0L---|--0L---|--0-------|


----------------------------------------------------|
----------------------------------------------------|
----------------------------------------------------|
----------------------------------------------------|
--0M-4--3--0M-2--0M-2--3--0M-4--3--0M-2--0M-2--3----|
--0M-4--3--0M-2--0M-2--3--0M-4--3--0M-2--0M-2--3----|


----------------------------------------------------|
----------------------------------------------------|
----------------------------------------------------|
----------------------------------------------------|
--0M-4--3--0M-2--0M-2--3--0M-4--3--0M-2--0M-2--3----|
--0M-4--3--0M-2--0M-2--3--0M-4--3--0M-2--0M-2--3----|


----------------------------------------------------|
----------------------------------------------------|
----------------------------------------------------|
----------------------------------------------------|
--0M-4--3--0M-2--0M-2--3--0M-4--3--0M-2--0M-2--3----|
--0M-4--3--0M-2--0M-2--3--0M-4--3--0M-2--0M-2--3----|


----------------------------------------------------|
----------------------------------------------------|
----------------------------------------------------|
----------------------------------------------------|
--0M-4--3--0M-2--0M-2--3--0M-4--3--0M-2--0M-2--3----|
--0M-4--3--0M-2--0M-2--3--0M-4--3--0M-2--0M-2--3----|


----------------------------------------------------|
----------------------------------------------------|
----------------------------------------------------|
----------------------------------------------------|
--0M-4--3--0M-2--0M-2--3--0M-4--3--0M-2--0M-2--3----|
--0M-4--3--0M-2--0M-2--3--0M-4--3--0M-2--0M-2--3----|


----------------------------------------------------|
----------------------------------------------------|
----------------------------------------------------|
----------------------------------------------------|
--0M-4--3--0M-2--0M-2--3--0M-4--3--0M-2--0M-2--3----|
--0M-4--3--0M-2--0M-2--3--0M-4--3--0M-2--0M-2--3----|


----------------------------------------------------|
----------------------------------------------------|
----------------------------------------------------|
----------------------------------------------------|
--0M-4--3--0M-2--0M-2--3--0M-4--3--0M-2--0M-2--3----|
--0M-4--3--0M-2--0M-2--3--0M-4--3--0M-2--0M-2--3----|


----------------------------------------------------|
----------------------------------------------------|
----------------------------------------------------|
----------------------------------------------------|
--0M-4--3--0M-2--0M-2--3--0M-4--3--0M-2--0M-2--3----|
--0M-4--3--0M-2--0M-2--3--0M-4--3--0M-2--0M-2--3----|


----------------------------------------------------|
----------------------------------------------------|
----------------------------------------------------|
----------------------------------------------------|
--0--------4--------0-----------2-----3-----2-------|
--0--------4--------0-----------2-----3-----2-------|


----------------------------------------------------|
----------------------------------------------------|
----------------------------------------------------|
----------------------------------------------------|
--0--------4--------0-----------2-----3-----2-------|
--0--------4--------0-----------2-----3-----2-------|


----------------------------------------------------|
----------------------------------------------------|
----------------------------------------------------|
----------------------------------------------------|
--0--------4--------0-----------2-----3-----2-------|
--0--------4--------0-----------2-----3-----2-------|


----------------------------------------------------|-------|-------||
----------------------------------------------------|-------|-------||
----------------------------------------------------|-------|-------||
----------------------------------------------------|-------|-------||
--0M-0M-0M-0M-------0M-0M-0M-0M---------------------|-------|-------||
--0M-0M-0M-0M-------0M-0M-0M-0M---------------------|-------|-------||




BASS




F |-------|-------|-------|-------|-------|-------|-------|----------|
C |-------|-------|-------|-------|-------|-------|-------|----------|
G |-------|-------|-------|-------|-------|-------|-------|----------|
C |-------|-------|-------|-------|--0L---|--0L---|--0L---|--0-------|

                                                     
----------------------------------------------------|
----------------------------------------------------|
----------------------------------------------------|
--0--4--3--0--2--0--2--3--0--4--3--0--2--0--2--3----|

                                                     
----------------------------------------------------|
----------------------------------------------------|
----------------------------------------------------|
--0--4--3--0--2--0--2--3--0--4--3--0--2--0--2--3----|

                                                     
----------------------------------------------------|
----------------------------------------------------|
----------------------------------------------------|
--0--4--3--0--2--0--2--3--0--4--3--0--2--0--2--3----|

                                                     
----------------------------------------------------|
----------------------------------------------------|
----------------------------------------------------|
--0--4--3--0--2--0--2--3--0--4--3--0----------------|

                                                     
----------------------------------------------------|
----------------------------------------------------|
----------------------------------------------------|
--0--4--3--0--2--0--2--3--0--4--3--0--2--0--2--3----|

                                                     
----------------------------------------------------|
----------------------------------------------------|
----------------------------------------------------|
--0--4--3--0--2--0--2--3--0--4--3--0--2--0--2--3----|

                                                     
----------------------------------------------------|
----------------------------------------------------|
----------------------------------------------------|
--0--4--3--0--2--0--2--3--0--4--3--0--2--0--2--3----|

                                                     
----------------------------------------------------|
----------------------------------------------------|
----------------------------------------------------|
--0--4--3--0--2--0--2--3--0--4--3--0--2--0--2--3----|

                                                             
----------------------------------------------------|-------|
----------------------------------------------------|-------|
----------------------------------------------------|-------|
--0-----------------------------0-----0-----0-------|--0----|

                                                     
----------------------------------------------------|
----------------------------------------------------|
----------------------------------------------------|
--2--0--0--3--0--0--4--0--0--3--0--0--2--0--3--0----|

                                                     
----------------------------------------------------|
----------------------------------------------------|
--------------------------------------1h-3----------|
--2--0--0--3--0--0--4--0--0--3--0--0--------3--0----|

                                                     
----------------------------------------------------|
----------------------------------------------------|
----------------------------------------------------|
--2--0--0--3--0--0--4--0--0--3--0--0--2--0--3--0----|

                                                     
----------------------------------------------------|
----------------------------------------------------|
--------------------------------------1h-3----------|
--2--0--0--3--0--0--4--0--0--3--0--0--------3--0----|

                                                     
----------------------------------------------------|
----------------------------------------------------|
----------------------------------------------------|
--0--0--0--0--0--0--------0--0--0--0--0--0----------|

                                                     
----------------------------------------------------|
----------------------------------------------------|
----------------------------------------------------|
--0--0--0--0--0--0--------0--0--0--0--0--0----------|

                                                             
----------------------------------------------------|-------|
----------------------------------------------------|-------|
--------------------------------------1h-3----------|-------|
--2--0--0--3--0--0--4--0--0--3--0--0--------3--0----|-------|

                                                       =  =     
----------------------------------------------------|----------|
----------------------------------------------------|----------|
----------------------------------------------------|--3--6----|
--0--0--0--13~---0--------0--0--0--13~---0----------|----------|

                                                                
----------------------------------------------------|----------|
----------------------------------------------------|----------|
----------------------------------------------------|----------|
--0--0--0--13~---0--------0--0--0--13~---0----------|--8--7----|

                                                 =  =           
----------------------------------------------------|----------|
----------------------------------------------------|----------|
----------------------------------------------------|--3--6----|
--0--0--0--13~---0--------0--0--0--13~---0----------|----------|

                                                     
----------------------------------------------------|
----------------------------------------------------|
----------------------------------------------------|
--0--0--0--13~---0--------0--0--0--13~---0----------|

                             
----------------------------|
----------------------------|
----------------------------|
--8-----------7-------------|

                                                     
----------------------------------------------------|
----------------------------------------------------|
----------------------------------------------------|
--2--0--0--3--0--0--4--0--0--3--0--0--2--0--3--0----|

                                                     
----------------------------------------------------|
----------------------------------------------------|
--------------------------------------1h-3----------|
--2--0--0--3--0--0--4--0--0--3--0--0--------3--0----|

                                                     
----------------------------------------------------|
----------------------------------------------------|
----------------------------------------------------|
--2--0--0--3--0--0--4--0--0--3--0--0--2--0--3--0----|

                                                     
----------------------------------------------------|
----------------------------------------------------|
--------------------------------------1h-3----------|
--2--0--0--3--0--0--4--0--0--3--0--0--------3--0----|

                                                     
----------------------------------------------------|
----------------------------------------------------|
----------------------------------------------------|
--2--0--0--3--0--0--4--0--0--3--0--0--2--0--3--0----|

                                                     
----------------------------------------------------|
----------------------------------------------------|
--------------------------------------1h-3----------|
--2--0--0--3--0--0--4--0--0--3--0--0--------3--0----|

                                                     
----------------------------------------------------|
----------------------------------------------------|
----------------------------------------------------|
--2--0--0--3--0--0--4--0--0--3--0--0--2--0--3--0----|

                                                     
----------------------------------------------------|
----------------------------------------------------|
--------------------------------------1h-3----------|
--2--0--0--3--0--0--4--0--0--3--0--0--------3--0----|

                                                     
----------------------------------------------------|
----------------------------------------------------|
----------------------------------------------------|
--0--0--0-----0--0-----0--0-----0--0-----0--0-------|

                                                     
----------------------------------------------------|
----------------------------------------------------|
----------------------------------------------------|
--0--0--0-----0--0-----0--0-----0--0-----0--0-------|

                                                             
----------------------------------------------------|-------|
----------------------------------------------------|-------|
----------------------------------------------------|-------|
--0--0--0-----0--0-----0--0-----0--0-----0--0-------|-------|

                                                     
----------------------------------------------------|
----------------------------------------------------|
----------------------------------------------------|
--0--0--0-----0--0-----0--0-----0--0-----0--0-------|

                                                     
----------------------------------------------------|
----------------------------------------------------|
----------------------------------------------------|
--0--0--0-----0--0-----0--0-----0--0-----0--0-------|

                                                     
----------------------------------------------------|
----------------------------------------------------|
----------------------------------------------------|
--0--0--0-----0--0-----0--0-----0--0-----0--0-------|

                                                                                
--------------------------------------------------------------------------------
--------------------------------------------------------------------------------
--------------------------------------------------------------------------------
--14s---------------------------------0--0--0-----0-----------------0-----------

                                                                          
--------------------|----------------------------------------------------|
--------------------|----------------------------------------------------|
--------------------|----------------------------------------------------|
------0-------------|--0--0--0-----0--0-----0--0-----0--0-----0--0-------|

                                        =  =         
----------------------------------------------------|
----------------------------------------------------|
----------------------------------------------------|
--0--0--0-----0--0-----0--0-----0--0-----0--0-------|

                                                     
----------------------------------------------------|
----------------------------------------------------|
----------------------------------------------------|
--0--0--0-----0--0-----0--0-----0--0-----0--0-------|

                                                     
----------------------------------------------------|
----------------------------------------------------|
----------------------------------------------------|
--0-------------------------------------------------|

   =  =
----------------------------------------------------|----------|
----------------------------------------------------|----------|
----------------------------------------------------|--3--6----|
--0--0--0--13~---0--------0--0--0--13~---0----------|----------|


----------------------------------------------------|----------|
----------------------------------------------------|----------|
----------------------------------------------------|----------|
--0--0--0--13~---0--------0--0--0--13~---0----------|--8--7----|


----------------------------------------------------|----------|
----------------------------------------------------|----------|
----------------------------------------------------|--3--6----|
--0--0--0--13~---0--------0--0--0--13~---0----------|----------|


----------------------------------------------------|----------|-------|-------|
----------------------------------------------------|----------|-------|-------|
----------------------------------------------------|----------|-------|-------|
--0--0--0--13~---0--------0--0--0--13~---0----------|--8--7----|--0L---|--0L---|


-------|----------|-------|-------|-------|----------|-------|-------|-------|
-------|----------|-------|-------|-------|----------|-------|-------|-------|
-------|----------|-------|-------|-------|----------|-------|-------|-------|
--0L---|--0--0L---|--0L---|--0L---|--0L---|--0--0----|--0L---|--0L---|--0L---|


-------|-------|-------|-------|----------|
-------|-------|-------|-------|----------|
-------|-------|-------|-------|----------|
--0L---|--0L---|--0L---|--0L---|--0-------|


----------------------------------------------------|
----------------------------------------------------|
----------------------------------------------------|
--0--4--3--0--2--0--2--3--0--4--3--0--2--0--2--3----|


----------------------------------------------------|
----------------------------------------------------|
----------------------------------------------------|
--0--4--3--0--2--0--2--3--0--4--3--0--2--0--2--3----|


----------------------------------------------------|
----------------------------------------------------|
----------------------------------------------------|
--0--4--3--0--2--0--2--3--0--4--3--0--2--0--2--3----|


----------------------------------------------------|
----------------------------------------------------|
----------------------------------------------------|
--0--4--3--0--2--0--2--3--0--4--3--0--2--0--2--3----|


----------------------------------------------------|
----------------------------------------------------|
----------------------------------------------------|
--0--4--3--0--2--0--2--3--0--4--3--0--2--0--2--3----|


----------------------------------------------------|
----------------------------------------------------|
----------------------------------------------------|
--0--4--3--0--2--0--2--3--0--4--3--0--2--0--2--3----|


----------------------------------------------------|
----------------------------------------------------|
----------------------------------------------------|
--0--4--3--0--2--0--2--3--0--4--3--0--2--0--2--3----|


----------------------------------------------------|
----------------------------------------------------|
----------------------------------------------------|
--0--4--3--0--2--0--2--3--0--4--3--0--2--0--2--3----|


----------------------------------------------------|
----------------------------------------------------|
----------------------------------------------------|
--0--------4--------0-----------2-----3-----2-------|


----------------------------------------------------|
----------------------------------------------------|
----------------------------------------------------|
--0--------4--------0-----------2-----3-----2-------|


----------------------------------------------------|
----------------------------------------------------|
----------------------------------------------------|
--0--------4--------0-----------2-----3-----2-------|


----------------------------------------------------|-------|-------||
----------------------------------------------------|-------|-------||
----------------------------------------------------|-------|-------||
--0--0--0--0--------0--0--0--0----------------------|-------|-------||

   
https://primanota.ru/of-mice-and-men/you-make-me-sick-chords.htm

Привет, гитарист!

Тебе подарок от сайта PrimaNota.ru

Забрать подарок
ВАМ ПОДАРКИ ОТ ПРОЕКТА
"ГИТАРНАЯ РЕВОЛЮЦИЯ"