Войти:  Facebook Google Twitter Vk Yandex Mail.ru
PrimaNota.ru - самый крупный в мире бесплатный архив песенных текстов, аккордов, табулатур и нот


Noori - Gana No 1 - таба, видео

Печатать
Просмотров: 89
Лучшая metal-группа Петербурга

Gana No 1

  • аккорды и текст

[Solo]

e|--------------------------------------|
B|--------------------------------------|
G|--------------------------------------| 
D|--5-5---5-5---5-5---5-5---------------|
A|--5-5---5-5---5-5---5-5---------------|
E|--3-3---3-3---3-3---3-3---------------|

e|-------------------------------------------------------------|
B|-------------------------------------------------------------|
G|-----------5s3----------3s5s3----------5s3-------------------|
D|--5-5-5-5-5----5-5-5-5-5------5-5-5-5-5----5-5-5-5-5-------8-|
A|--5-5-5-5-5----5-5-5-5-5------5-5-5-5-5----5-5-5-5-5-slide-8-|
E|--3-3-3-3-3----3-3-3-3-3------3-3-3-3-3----3-3-3-3-3-------6-|

e|--------1-------------------------1-3-1---------------------1-----------------------1-3-1-3-3s6-|
B|-1s3-1-1----1s3-1----------1s3-1-1------4-3-3h4-3---1s3-1------1s3----------1s3-1---------------|
G|------3-----------3-2-3--3------3-----------------3------3-3-------3-2-3--3------3-3------------|
D|----------5--------------3------------------------3-----------5-----------3---------------------|
A|----------5--------------1------------------------1-----------5-----------1---------------------|
E|----------3---------------------------------------------------3---------------------------------|


tabbed by Insha ur Rehman
www.superinsha.webs.com
************************************

| h  Hammer-on
| s  Slide

************************************
Добавлено: 24.10.2017
Другие композиции этого автора:
Другие материалы по этой песне:
  • Аккорды и текст

Страница создана 24.10.2017
https://primanota.ru/noori/gana-no-1-chords.htm

Привет, гитарист!

Тебе подарок от сайта PrimaNota.ru

Забрать подарок
ВАМ ПОДАРКИ ОТ ПРОЕКТА
"ГИТАРНАЯ РЕВОЛЮЦИЯ"