Войти:  Facebook Google Twitter Vk Yandex Mail.ru
PrimaNota.ru - самый крупный в мире бесплатный архив песенных текстов, аккордов, табулатур и нот


Nofx - Cell Out - табы, видео

Печатать
Лучшая metal-группа Петербурга

Cell Out

  • аккорды и текст

Standard Tuning
Capo 8th

[Intro]

e|-----------------|-----------------|-----------------|-----------------|
B|-----------------|-----------------|-----------------|-----------------|
G|-------2---------|-----------------|-------2---------|-----------------|
D|-2-0-2---2---2-2-|-2-2-2-2-2---2-2-|-2-0-2---2---2-2-|-2-2-2-2-2---2-2-|
A|-2-2-2---2---2-2-|-2-2-2-2-2---2-2-|-3-3-3---3---3-3-|-3-3-3-3-3---3-3-|
E|-0-0-0---0---0-0-|-0-0-0-0-0---0-0-|-0-0-0---0---0-0-|-0-0-0-0-0---0-0-|

e|-----------------|-----------------|-----------------|-----------------|
B|-----------------|-----------------|-----------------|-----------------|
G|-------2---------|-----------------|-------2---------|---------------2-|
D|-2-0-2---2---2-2-|-2-2-2-2-2---2-2-|-2-0-2---2---2-2-|-2-2-2-2-2---2---|
A|-0-0-0---0---0-0-|-0-0-0-0-0---0-0-|-0-0-0---0---0-0-|-0-0-0-0-0---0---|
E|-0-0-0---0---0-0-|-0-0-0-0-0---0-0-|-0-0-0---0---0-0-|-0-0-0-0-0---0---|

e|-----------------|-----------------|-----------------|-----------------|
B|-----------------|-----------------|-----------------|-----------------|
G|---2-------------|---------------2-|---2-------------|---------------2-|
D|-2---2-0-2---2-2-|-2-2-2-2-2---2---|-2---2-0-2---2-2-|-2-2-2-2-2---2---|
A|-2---2-2-2---2-2-|-2-2-2-2-2---2---|-3---3-3-3---3-3-|-3-3-3-3-3---3---|
E|-0---0-0-0---0-0-|-0-0-0-0-0---0---|-0---0-0-0---0-0-|-0-0-0-0-0---0---|

e|-----------------|-----------------|-----------------|-----------------|
B|-----------------|-----------------|-----------------|-----------------|
G|---2-------------|---------------2-|---2-------------|-----------------|
D|-2---2-0-2---2-2-|-2-2-2-2-2---2---|-2---2-0-2---2-2-|-2-2-2-2-2---2-2-|
A|-0---0-0-0---0-0-|-0-0-0-0-0---0---|-0---0-0-0---0-0-|-0-0-0-0-0---0-0-|
E|-0---0-0-0---0-0-|-0-0-0-0-0---0---|-0---0-0-0---0-0-|-0-0-0-0-0---0-0-|


[Verse]

e|-----------------|-----------------|-----------------|-----------------|
B|-----------------|-----------------|-----------------|-----------------|
G|-----------------|-----------------|-5---5-5-5-5-5-5-|-5---5-5-5-5-5-5-|
D|-2---2-2-2-2-2-2-|-2---2-2-2-2-2-2-|-5---5-5-5-5-5-5-|-5---5-5-5-5-5-5-|
A|-2---2-2-2-2-2-2-|-2---2-2-2-2-2-2-|-3---3-3-3-3-3-3-|-3---3-3-3-3-3-3-|
E|-0---0-0-0-0-0-0-|-0---0-0-0-0-0-0-|-----------------|-----------------|

e|-----------------|-----------------|-----------------|-----------------|
B|-----------------|-----------------|-----------------|-----------------|
G|-2---2-2-2-2-2-2-|-2---2-2-2-2-2-2-|-2---2-2-2-2-2-2-|-2---2-2-2---2---|
D|-2---2-2-2-2-2-2-|-2---2-2-2-2-2-2-|-2---2-2-2-2-2-2-|-2---2-2-2---2---|
A|-0---0-0-0-0-0-0-|-0---0-0-0-0-0-0-|-0---0-0-0-0-0-0-|-0---0-0-0---0---|
E|-3---0-0-0-0-0-0-|-0---0-0-0-0-0-0-|-3---0-0-0-0-0-0-|-3---0-0-3---2---|

4 times. play at the 2nd and 4th time [x244xx] instead of last 2 measures


Song structure:

[Intro]
[Verse]
[Chorus 1] (2nd line of Intro)
[Verse] (At 4th time don't replace last 2 measures by [x244xx]!)
[Chorus 2] (2x whole Intro. 2nd one with another instrumental part. You can
add it to this tab, if you want.)

End with [022xxx].   
Другие материалы по этой песне:
  • Аккорды и текст

https://primanota.ru/nofx/cell-out-chords.htm

Привет, гитарист!

Тебе подарок от сайта PrimaNota.ru

Забрать подарок
ВАМ ПОДАРКИ ОТ ПРОЕКТА
"ГИТАРНАЯ РЕВОЛЮЦИЯ"