Войти:  Facebook Google Twitter Vk Yandex Mail.ru
PrimaNota.ru - самый крупный в мире бесплатный архив песенных текстов, аккордов, табулатур и нот


Night Beds - 22 Live - таба, видео

Печатать
Просмотров: 152
Лучшая metal-группа Петербурга

22 Live

  • аккорды и текст

-------------------------------------------------------------------------------
                             SONG NAME - Band Name
-------------------------------------------------------------------------------
Tabbed by: Geoffrey Thompson
E-mail: geoffreytmusic@gmail.com

This is from a live version that can be found here : https://www.youtube.com/watch?v=T05OMaSLImw
"22" starts
at 3:20 I can't quite hear/see everything he's doing at the end (Part 3) so I just put 
how I play it and it 
sounds about right.

Tuning: Half step down

Part 1:

e|---0----0-----|
B|---3----3-----|
G|---0----0-----|
D|---4----4-----|
A|---5----5-----|
E|---5----3-----|

Part 2:

e|---0----0----2----|
B|---7----2----3----|
G|---7----2----0----|
D|---x----x----0----|
A|---x----x----x----|
E|---7----2----3----|

Part 3:

e|---0----0---|
B|---7----2---|
G|---7----2---|
D|---x----x---|
A|---x----x---|
E|---7----2---|



(Part 1)
A part of me, I call a stranger
This part of me, I found in danger
We saw the night, you 'fleshed it out 
Across time, wearin' my heart's smile

All too dark, words left to finish
The trail, the ground, over my head
Honesty was pine, tress off your neck
From where love was found, rolled up in chains

(Part 2)
When I tried the search to find the cause 
In your eyes I'll lose my mind repose

(Part 1)
In an old world, I know nothing
The August night, we hear the train sound
All again, songs are failed instincts
They will find my soul will not keep

(Part 2)
To my mother fell in love forever
It's rendered right we'll take our time to go 
When the firefly eat my mind and soul

(Part 3)
i'll find the one I cant deny 
I'll find the one she sits inside
I'll find the one i cant deny 

End on 

e|---0---|
B|---3---|
G|---0---|
D|---4---|
A|---5---|
E|---5---|
Добавлено: 28.08.2014
Другие материалы по этой песне:
  • Аккорды и текст

Страница создана 28.08.2014
https://primanota.ru/night-beds/22-live-chords.htm

Привет, гитарист!

Тебе подарок от сайта PrimaNota.ru

Забрать подарок
ВАМ ПОДАРКИ ОТ ПРОЕКТА
"ГИТАРНАЯ РЕВОЛЮЦИЯ"