Войти:  Facebook Google Twitter Vk Yandex Mail.ru
PrimaNota.ru - самый крупный в мире бесплатный архив песенных текстов, аккордов, табулатур и нот


Nelly - Cruise - бас-таба

Нотный режим - новая уникальная возможность на нашем сайте!
-----------------------------------------------------------------------------
                   Cruise (Remix) - Nelly (Feat. Florida Georgia Line)
-----------------------------------------------------------------------------

Tabbed by: Country Bass
E-mail: aaron.white8@education.nsw.gov.au

I tabbed out the original version and this new remix has gotten pretty popular so I 
figured I'd tab it out too

the 10's and 11's in the tab are 10's and 11's not 1-0 or 1-1

Tuning: Standard

Intro

G|-------------------------------|
D|-------------------------------|
A|-------------------------------| x2
E|--3----x10-10---x11-11---x9-9--|

Verse

G|-----------------------------------------------------------|
D|-----------------------------------------------------------|
A|-----------------------------------------------------------|
E|--3----x10-10---x11-11---x9-9---x3---x10-10---x11-11---x3--|

Chorus

G|-------------------------------|
D|-------------------------------|
A|-------------------------------| x5
E|--3----x10-10---x11-11---x9-9--|

Verse 3

G|------------------------------|
D|------------------------------|
A|------------------------------| x5
E|--3-----1010------11------99--|

G|--------------------------|
D|--------------------------|
A|--------------------------|
E|--9---9--9-9-9-9-9-9-9-9--|


Playing Order

Intro
Verse
Chorus
Verse
Chorus
Verse 3
Chorus


| /  slide up
| \  slide down
| h  hammer-on
| p  pull-off
| ~  vibrato
| +  harmonic
| x  Mute note
=============================================================================   

Nelly - Cruise - ноты

(включить)
Другие материалы по этой песне:
  • Аккорды, текст

https://primanota.ru/nelly/cruise-chords.htm

Привет, гитарист!

Тебе подарок от сайта PrimaNota.ru

Забрать подарок
ВАМ ПОДАРКИ ОТ ПРОЕКТА
"ГИТАРНАЯ РЕВОЛЮЦИЯ"