Войти:  Facebook Google Twitter Vk Yandex Mail.ru
PrimaNota.ru - самый крупный в мире бесплатный архив песенных текстов, аккордов, табулатур и нот


Name Taken - Clear And Conscious - таба, видео

Печатать
Просмотров: 175
Лучшая metal-группа Петербурга

Clear And Conscious

  • аккорды и текст

All I know for now is the picking part. I'm not so good with chords, so any help would 
greatly appreciated.

Light Distortion at the beginning


  "We're still running...."
E|-----------------------------------|
A|-----------------------------------|
D|-----6---6---6-------6---6---6-----|
G|---0---0---0---0---0---0---0---0---|
B|-0---------------------------------|
e|-----------------3-----------------|

  "To take us back...."
E|---------------------------------|
A|------------------------0--------|
D|-----6---6---6-------6b---6------|
G|---0---0---0---0---0--------0----|
B|-0-------------------------------|
e|-----------------3---------------|

  "No, no, we'll be clean again...."
E|--------------------------0----|
A|--------------------------0----|
D|-----6---6---6-------6----6----|
G|---0---0---0---0---0---0--0----|
B|-0------------------------0----|
e|-----------------3--------3----|

That's all I got for now, and I couldn't find any other tabs on the internet. If anyone 
any addition, please contact me.
Добавлено: 24.05.2012
Другие композиции этого автора:
Другие материалы по этой песне:
  • Аккорды и текст

Страница создана 24.05.2012
https://primanota.ru/name-taken/clear-and-conscious-chords.htm

Привет, гитарист!

Тебе подарок от сайта PrimaNota.ru

Забрать подарок
ВАМ ПОДАРКИ ОТ ПРОЕКТА
"ГИТАРНАЯ РЕВОЛЮЦИЯ"